Oops, an error
Loading. Please wait.

Back To The Worms Tab

version 1
version 1

Whole song

Interactive

104 views 1 this week
no commentswrite comment
1 2 3 4 5
please rate
add to favorites
launch autoscroll
font size
0
reset
how to read this tab
guitar tuner
Autoscroll
slow
fast
+/-
esc
set tempo
stop
Help us to improve Ultimate-Guitar.com Take our survey!
×
Author
MoonPieCadet 10,332
Tuning: B E A D F# B
.    -   palm mute          / - slide up to
\    -   slide down to      ~ - vibrato
h    -   hammer on          b - Bend
p    -   pull off           Suffixes for bend
t    -   tap                f - full bend     h - half bend
ph   -   pinched harmonic   q - quarter bend t - tap bend
*    -   see comment        ^ - Hold bend     r release bend
x    -   Stuccatto          ~ - vibrato bend
,    -   slight palm mute   () - ghost note, sustained note
"    -   tremolo note       <> - Trill
nh   -   natural harmonic   . - (above note) staccato



Rhy. Fill

|---------|
|---------|
|---------|
|-------.-|
|-6-5-4-3-|
|-4-3-2-1-|
  . . . .


Riff A:              _________________ __________________
                                     1|                  2|
|-------------------|------------------|-------------------|
|-------------------|------------------|-------------------|
|-------------------|------------------|-------------------|
|-----------------.-|-----------.----.-|-----------------.-|
|-----------------3-|-----------3----6-|-----------6-5-4-3-|
|-000000000000000-1-|---0000000-1----4-|---0000000-4-3-2-1-|
                  .             .    .             . . . .


Riff B1:           ________________ ________________
                                  1|                2|
|-----------------|-----------------|-----------------|
|-----------------|-----------------|-----------------|
|-----------------|-----------------|-----------------|
|---4-3-5---4-3---|---4-3-5---------|---4-3-5---------|
|-2-2-1-3-2-2-1-4-|-2-2-1-3-2-4-5-3-|-2-2-1-3-2-4-3-5-|
|-0-------0-----2-|-0-------0-2-3-1-|-0-------0-2-1-3-|

________________  __________________________________
                3|                                  4|
|-----------------|-----------------|-----------------|
|-----------------|-----------------|-----------------|
|-----------------|-----------------|-----------------|
|---4-3-5---------|---4-3-5---------|-.---------------|
|-2-2-1-3-2-3-4-5-|-2-2-1-3-2-4-5-3-|-2---------------|
|-0-------0-1-2-3-|-0-------0-2-3-1-|-0---------------|
                              . . .   .
Riff C:

|Gtr1
|---------------|---------------|---------------|---------------|
|---------------|---------------|---------------|---------------|
|---------------|---------------|-11--10--------|---------------|
|-9-------------|-10------------|---------------|---------------|
|-7-------------|--8------------|--9---8--------|---------------|
|-7-------------|--8------------|---------------|---------------|
|               |               |               |               |
|Gtr2           |               |               |               |
|---------------|---------------|---------------|---------------|
|---------------|---------------|---------------|---------------|
|---------------|---------------|---------------|---------------|
|-9-------------|-10------------|-11--10--------|---------------|
|-7-------------|--8------------|--9---8--------|---------------|
|-7-------------|--8------------|--9---8--------|---------------|


Riff D1:

|-----------------|-----------------|
|-----------------|-----------------|
|-----------------|-----------------|
|-----------------|---------4-4-4-4-|
|-6-5-3-2-3---2---|-6\5-5-5-2-2-2-2-|
|-4-3-1-0-1---0---|-4\3-3-3---------|
  . . . . .   .             . . . .


Riff D2:

|-----------------|-----------------|
|-----------------|-----------------|
|-----------------|-----------------|
|-----------------|---------4-4-4-4-|
|-3-2-2-2-3-2-2-2-|-6\5-5-5-2-2-2-2-|
|-1-0-0-0-1-0-0-0-|-4\3-3-3---------|
  . . . . . . . .           . . . .


Riff E1:

|-------------------------|-------------------------|
|-------------------------|-------------------------|
|-------------------------|-------------------------|
|-------4-3-5-------4-3---|-------4-3-5-------------|
|-2-222-2-1-3-2-222-2-1-4-|-2-222-2-1-3-2-222-4-3-5-|
|-0-000-------0-000-----2-|-0-000-------0-000-2-1-3-|
  . ...       . ...         . ...       . ...


Riff D3:            _________________ _________________
                                    1|                 2|
|------------------|------------------|------------------|
|------------------|------------------|------------------|
|------------------|------------------|------------------|
|------------------|------------------|------------------|
|------------------|---------22222222-|---------33333333-|
|-1100000000000000-|-44333333---------|-44333333---------|
Riff D4:

|Gtr1
|------------------|------------------|
|------------------|------------------|
|------------------|------------------|
|-.----------------|---.--------------|
|-2--------------2-|-6-5-----22222222-|
|-0--------------0-|-4-3--------------|
|                  |                  |
|Gtr2              |                  |
|------------------|------------------|
|------------------|------------------|
|------------------|------------------|
|------------------|------------------|
|------------------|---------22222222-|
|-1100000000000000-|-44333333---------|


|Gtr1
|------------------|------------------|
|------------------|------------------|
|------------------|------------------|
|------------------|------------------|
|------------------|---------33333333-|
|-1100000000000000-|-44333333---------|
|                  |                  |
|Gtr2              |                  |
|------------------|------------------|
|------------------|------------------|
|------------------|------------------|
|------------------|------------------|
|------------------|---------33333333-|
|-1100000000000000-|-44333333---------|


Solo: Some of the whammy parts might be a little off because I don't
      have a whammy bar at my disposal at the moment.


|-ph---------------------------|-----------------ph---------|
|-12bh-------------------------|-----------------10bf---r---|
|-----14---12------------------|----------------------------|
|---------------141414--121212-|-910121091097975------------|
|------------------------------|----------------------------|
|------------------------------|----------------------------|


|------------------------|-------------------1214151415171517191715-|
|-1012131513121012~~~~~~-|-121315131517151719-----------------------|
|------------------------|------------------------------------------|
|------------------------|------------------------------------------|
|------------------------|------------------------------------------|
|------------------------|------------------------------------------|

                 .           .           .
|------------15p12-------17p12-------19p12-|
|-12-------14----------14----------14------|
|--------13----------13----------13--------|
|------14----------14----------14----------|
|------------------------------------------|
|------------------------------------------|


|-23bh-19-15-------------------------|
|------------17----------------------|
|---------------16-------------------|
|------------------17-14-------------|
|------------------------15-12-------|
|------------------------------12~~~-|
      /--w/whammy-bar-flutters-\
|-/19----------------------------|
|--------------------------------|
|-----14h16h17-14h16h17-14h16h17-|
|--------------------------------|
|--------------------------------|
|--------------------------------|

|-----------------------121415-|-17bf-w/whammy-bar-flutter---|
|-----------------121315-------|-----------------------------|
|-----------111214-------------|-----------------------------|
|------91012-------------------|-----------------------------|
|-91012------------------------|-----------------------------|
|------------------------------|-----------------------------|


Riff E2:                   ________________________
                                              1,2,3|
|-------------------------|-------------------------|
|-------------------------|-------------------------|
|-------------------------|-------------------------|
|-------4-3-5-------4-3---|-------4-3-5-------------|
|-2-222-2-1-3-2-222-2-1-4-|-2-222-2-1-3-2-222-4-3-5-|
|-0-000-------0-000-----2-|-0-000-------0-000-2-1-3-|
  . ...       . ...          . ...      . ...
___________________________
                            4|
|----------------------------|
|----------------------------|
|----------------------------|
|-------4-3-5-----------.----|
|-2-222-2-1-3-2-222-4-3-5----|
|-0-000-------0-000-2-1-3----|
  . ...       . ...

Outro:

|-------------------------|
|-------------------------|
|-------------------------|
|-----------------------.-|
|-6-5-4-3-555-555-555-555-|
|-4-3-2-1-333-333-333-333-|
  . . . . ... ... ... ...


Song Structure:

Rhy. Fill
Riff A      (x2)
Riff B1
Riff C      (x3)
Riff D1
Riff D2     (x5)
Rhy. Fill
Riff A      (x2)
Riff B2
Riff E1     (x5) (First time, Gtr1 only)
Riff D3     (x2)
Riff D4
Riff D3
Riff D3     (x2) (w/Solo)
Riff E2          (Last bar of Solo played over first bar)
Rhy. Fill
Riff A      (x2)
Outro


End.
Suggest correction new What's this?
You can suggest a correction to this tab. Community and Mods will review your correction and vote to approve or reject it.
comments
We did not receive enough feedback on this tab! Please rate:
print report bad tab
1 2 3 4 5
guest
You may want to rate the tab now too:
select rating
Please do not post tabs as comments. Select "correction" instead!