Oops, an error
Loading. Please wait.

Born Headless Tab

version 1
version 1

Whole song

Interactive

358 views 1 this week
no commentswrite comment
1 2 3 4 5
please rate
add to favorites
launch autoscroll
font size
0
reset
how to read this tab
guitar tuner
Autoscroll
slow
fast
+/-
esc
set tempo
stop
Help us to improve Ultimate-Guitar.com Take our survey!
×
Author
Difficulty
intermediate
Band: Cryptopsy
Album: Blasphemy Made Flesh
Song: Born Headless

Code:
Suffixes for bend:
fb - full bend       hb - half bend
qb - quarter bend    t - tap bend
^ - Hold bend        r - release bend
~ - vibrato bend

Suffixes for harmonic:
ph - pinched harmonic      nh – natural harmonic
ah – artificial harmonic   hh – harp harmonic

Suffixes for mute:
. – palm mute            x – staccato mute
, - light palm mute      ; - heavy palm mute

Other:
/ - slide up to            \ - slide down to
h - hammer on              p - pull off
‘ - sustained note         * - see comment
" - tremolo note           <> - Trill
L – left channel only      R – right channel only
= - 12 string guitar part

Tuning B E A D F# B

Riff 1a (0:02)
|-------------------------------------|
|-------------------------------------|
|-------------------------------------|
|-3--------4--------3--------6--------|
|-1--4--3--2--4--3--1--4--3--4--4--5--|
|----2--1-----2--1-----2--1-----2--3--|
     ;  ;     ;  ;     ;  ;     ;  ;

Riff 1b (0:08)
|-------------------------------------|
|-------------------------------------|
|-------------------------------------|
|-3--------4--------3--------6--------|
|-1--4--3--2--4--3--1--4--3--4--4--5--|
|----2--1-----2--1-----2--1-----2--3--|

Riff 1a x 1 (0:14)
Riff 1b x 1 (0:20)
Riff 1a x 1 (0:26)
Riff 1b x 1 (0:32)

Riff 2a (0:38) play 4 times
|--------------------------------------------------------------|
|--------------------------------------------------------------|
|--------------------------------------------------------------|
|--------------------------------------------------4-----3-----|
|--------------------------------------------------2--5--1--4--|
|-000011114444222200001111444422220000111144442222----3-----2--|

Riff 2b (0:50) play 4 times
|-------------------------------------------------|
|-------------------------------------------------|
|-------------------------------------------------|
|-------------------------------------4-----3-----|
|-2--3--6--4--2--3--6--4--2--3--6--4--2--5--1--4--|
|-0--1--4--2--0--1--4--2--0--1--4--2-----3-----2--|

Riff 2a x 1 (1:02)

Riff 3a (1:22)
|-------------------------------------------|
|-------------------------------------------|
|-------------------------------------------|
|-5-------------------6---------------------| gtr 1
|-3-----------5---4---4---------------------|
|-------------3---2-------------------------|
  x                   x
|-------------------------------------------|
|-------------------------------------------|
|-------------------------------------------|
|-------------------------------------------| gtr 2
|-333333333333--------44444444444433332222--|
|-------------33332222----------------------|

Riff 3b (1:24) play 4 times
|--------------------------------------------------------------------|
|--------------------------------------------------------------------|
|--------------------------------------------------------------------|
|--------------------------------------------------------------------|
|-333333333333--------44444444444433332222333333333333--------444444-|
|-------------33332222--------------------------------33332222-------|

----------------|
----------------|
----------------|
------33332222--|
444444----------|
----------------|

Riff 4a (1:41) play 4 times
|----------------------------|
|----------------------------|
|----------------------------|
|-5----5-------6----6--------|
|-3----3---5-4-4----4---5-4--|
|-3----3---3-2-4----4---3-2--|
           . .          . .

Riff 4b (1:51) play 4 times
|----------------------------------------------|
|----------------------------------------------|
|----------------------------------------------|
|-5--5--5--5--5--5------6--6--6--6--6--6-------|
|-3--3--3--3--3--3--5-4-4--4--4--4--4--4--5-4--|
|-3--3--3--3--3--3--3-2-4--4--4--4--4--4--3-2--|
  .  .  .  .  .  .  . . .  .  .  .  .  .  . .


Riff 2a x 1 (2:12)

Fill 1 (2:29)
|------------------------------|
|------------------------------|
|------------------------------|
|------------------7-----6-----|
|------------------5--9--4--8--|
|-0000111133334444----7-----6--|

Riff 1a x 1 (2:31)
Riff 1b x 1 (2:37)
Riff 1a x 1 (2:43)
Riff 1b x 1 (2:49)

Riff 5 (2:55) play 8 times
|------------------------------------------|
|------------------------------------------|
|------------------------------------------|
|------------------------------------------|
|-6666--------3333-3--2--3--2--3--2--3--2--|
|-----55552222-----1--0--1--0--1--0--1--0--|
                   .  .  .  .  .  .  .  .

Riff 6a (3:15) play 3 times
|-------------------------------------------------------------------|
|-------------------------------------------------------------------|
|-------------------------------------------------------------------|
|-------------------------------------------------------------------|
|-------------2222------------2222-5-5--4---6---3--5-5--4---6---3---|
|-333322221111----333322221111-----3-3--2---4---1--3-3--2---4---1---|
                                   . .             . .

Riff 6b (3:32)
|-------------------------------------------------------------------|
|-------------------------------------------------------------------|
|-------------------------------------------------------------------|
|-------------------------------------------------------------------|
|-------------2222------------2222-5-5--4---6---3--5-5--4-----------|
|-333322221111----333322221111-----3-3--2---4---1--3-3--2---444-111-|
                                   . .             . .      ... ...

Solo begins (3:38)

Riff 7 (3:38) play 4 times
|--------------------------------------------------------------------|
|--------------------------------------------------------------------|
|--------------------------------------------------------------------|
|--------------------------------------------------------------------|
|-2--2--2--2--2--2--2--2--2--2--2--2----------2--2--2--2--2--2--2--2-|
|-0--0--0--0--0--0--0--0--0--0--0--0--000-111-0--0--0--0--0--0--0--0-|
  .  .  .  .  .  .  .  .  .  .  .  .  ... ... .  .  .  .  .  .  .  .

----------------------|
----------------------|
----------------------|
----------------------|
-2--2--2--2-----------|
-0--0--0--0--111-333--|
 .  .  .  .  ... ...

Riff 3a x 1 (4:01)
Riff 3b x 1 (4:03)

End (4:20)
|--------------------------------------|
|--------------------------------------|
|--------------------------------------|
|-5---------6----5---------6--------6--|
|-3----5-4--4----3----5-4--4----5-4-4--|
|-3----3-2--4----3----3-2--4----3-2-4--|
   x   . .   x    x   . .   x   . .  x
Suggest correction
What's this?
You can suggest a correction to this tab. Community and Mods will review your correction and vote to approve or reject it.
comments
We did not receive enough feedback on this tab! Please rate:
print report bad tab
1 2 3 4 5
guest
You may want to rate the tab now too:
select rating
Please do not post tabs as comments. Select "correction" instead!