Oops, an error
Loading. Please wait.

Crown Of Horns Tab

version 1
version 1

Whole song

Interactive

2,637 views 6 this week
4 commentsread comments
1 2 3 4 5
please rate
add to favorites
launch autoscroll
font size
0
reset
how to read this tab
guitar tuner
Autoscroll
slow
fast
+/-
esc
set tempo
stop
Help us to improve Ultimate-Guitar.com Take our survey!
×
CROWN OF HORNS - Cryptopsy - None So Vile

Tuning (Low - High): B E A D F# B
pml - light pm;  pm - moderate pm;  pmh - heavy pm


A
|-------------|
|-------------|
|-6-------3---|
|-4-------1---|
  pmh.....pm..

B									 Play 4 Times
|-----------------------------------------------------------------|
|-------------------------------------------------------------6---|
|-2-------6-/-7---3-/-6---3-/-6---2---2---6-/-7---6---3---3---4---|
|-0-------4-/-5---1-/-4---1-/-4---0---0---4-/-5---4---1---1-------|
                                                  pm..........


C									   Play 4 Times
|---------------------6-6-5-5-6-6-|---------------------------------|
|---------------------------------|-----------------------------3---|
|-------------1-1-4-4-------------|-------------1-1-6-6-6-6-----1---|
|-0-0-0-0-1-1---------------------|-0-0-0-0-1-1-------------2-------|
  pm..................              pm..........................

Repeat B x 4

        Drum Fill
|-----|----------|
|-----|----------|
|-2---|----------|
|-0---|----------|
  pm..

D1									 Play 2 Times
|-----------------------------------------------------------------|
|-----------------3-3-3-3-----------------------------------------|
|-------------------------2-2-2-2-1-1-1-1---------1-1-1-1-2-2-2-2-|
|-0-0-0-0-1-1-1-1-------------------------3-3-3-3-----------------|
  pm..............................................................

D2
|-----------------------------------------------------------------|
|-----------------7-7-7-7-----------------------------------------|
|-------------------------6-6-6-6-5-5-5-5---------5-5-5-5-6-6-6-6-|
|-4-4-4-4-5-5-5-5-------------------------7-7-7-7-----------------|
  pm..............................................................

D2'
|-----------------------------------------------------------------|
|-----------------7-7-7-7-----------------------------------------|
|-------------------------6-6-6-6-5-5-5-5---------6-6-6-6-5-5-5-5-|
|-4-4-4-4-5-5-5-5-------------------------7-7-7-7-----------------|
  pm..............................................................


E1
|---------------------------------|---------------------------------|
|---------------------------------|-----------------------------5-5-|
|-2-------3---2---3-------7---9---|-----------------------------3-3-|
|-0---0-0-1---0---4-----0-5---7---|-6h7-5---6h7-5---6h7-5---6h7-----|
      pm..              pm              pm      pm      pm

E2
|---------------------------------|---------------------------------|
|---------------------------------|---------------------------------|
|-2-------3---2---3-------6---7---|-----------------------------3-3-|
|-0---0-0-1---0---1-----0-4---5---|-3h4-2---3h4-2---3h4-2---3h4-1-1-|
      pm..              pm              pm      pm      pm

Repeat (E1 + E2)

F									 Play 2 Times
|-----------------------------------------------------------------|
|-----------------------------------------------------------------|
|---------1-1-1-1-0-0-0-0---------3-------7-------7---------------|
|-0-0-0-0-----------------1-1-1-1-4-------5-------5-------1-1-1-1-|
  pm..............................                        pm......

F'									 Play 2 Times
|-----------------------------------------------------------------|
|-----------------------------------------------------------------|
|---------1-1-1-1-0-0-0-0---------3-3-3-3-7-7-7-7-7-7-7-7---------|
|-0-0-0-0-----------------1-1-1-1-4-4-4-4-5-5-5-5-5-5-5-5-1-1-1-1-|
  pm..............................................................

Repeat D1 & D2

D2"
|-------------------------------------------------------|
|-----------------7-7-7-7-------------------------7-----|
|-------------------------6-6-6-6-5-5-5-5---------5-----|
|-4-4-4-4-5-5-5-5-------------------------7-7-7-7-------|
  pm..............................................pmh...

Repeat F x 4

G1						    Play 2 Times
|--------------------------------------------------|
|--------------------------------------------------|
|-3--2--5--8--3--2--6--9--3--2--7--10--2--3--2-----|
|-1--0--3--6--1--0--4--7--1--0--5--8---0--1--0-----|
  pm......................................

G2						    Play 8 Times
|--------------------------------------------------|
|--------------------------------------------------|
|-3--2--5-/8--3--2--6-/9--3--2--7-/10--2--3--2-----|
|-1--0--3-/6--1--0--4-/7--1--0--5-/8---0--1--0-----|
  pm....      pm....      pm....       pm.


G3 - Guitar 1				   Play 3 Times
|-------------------------------------------------|
|-------------------------------------------------|
|-------------------------------------------------|
|-1--0--3-h6--1--0--4-h7--1--0--5-h8--0--1--0-----|
G3 - Guitar 2
|-------------------------------------------------|
|-------5-h8--------6-h9--------7-h11-------------|
|-8--7--------8--7--------8--7--------7--8--7-----|
|-------------------------------------------------|


G3' - Guitar 1				   
|---------------------------------------------------|
|-------------------------------------------6-6-6-6-|
|---------------------------------------------------|
|-1--0--3-h6--1--0--4-h7--1--0--5-h8--0--1----------|
G3' - Guitar 2
|---------------------------------------------------|
|-------5-h8--------6-h9--------7-h11-------6-6-6-6-|
|-8--7--------8--7--------8--7--------7--8----------|
|---------------------------------------------------|


H1
|-------------------------------------------------|
|-6-6-6-6-----------------------------------------|
|---------7-7-7-7-4-4-4-4---------4-4-4-4-7-7-7-7-|
|-------------------------5-5-5-5-----------------|
  pm..............................................

H2
|-------------------------------------------------|
|---------------------------------3-3-3-3-6-6-6-6-|
|---------3-3-3-3-6-6-6-6-4-4-4-4-----------------|
|-4-4-4-4-----------------------------------------|
  pm..............................................

Repeat (H1 + H2) x 3
(with harmony H1' + H2' the first and third time)

H1'
|-6-6-6-6-----------------------------------------|
|---------7-7-7-7-4-4-4-4---------4-4-4-4-7-7-7-7-|
|-------------------------5-5-5-5-----------------|
|-------------------------------------------------|
  pm..............................................

H2'
|---------------------------------3-3-3-3-6-6-6-6-|
|---------3-3-3-3-6-6-6-6-4-4-4-4-----------------|
|-4-4-4-4-----------------------------------------|
|-------------------------------------------------|
  pm..............................................

Repeat (E1 + E2) x 4

Fill								  Drum Roll  
|-------------------------------------------------|-------|-6-----------|
|-6-6-6-6-----------------------------------------|-------|-6-------5---|
|---------7-7-7-7-4-4-4-4---------4-4-4-4-7-7-7-7-|-------|-4---6---3---|
|-------------------------5-5-5-5-----------------|-------|-----4-------|
  pm..............................................              pmh.....

Repeat (H1 + H2) x 4  (under solo)

F"									 Play 2 Times
|-----------------------------------------------------------------|
|-----------------------------------------------------------------|
|---------1-1-1-1-0-0-0-0---------3-------7-------7-------3-------|
|-0-0-0-0-----------------1-1-1-1-4-------5-------5-------1-------|
  pm..............................pmh.............................

Repeat D1, D2 & D3
Repeat F x 4

I							 Play 4 Times
|-----------------------------------------------------|
|-3-----------3---3---3-------3-----------3-----------|
|-3---2-------3---3---3---2---3---2-------3---2-------|
|-1---0-------1---1---1---0---1---0-------1---0-------|

Repeat A, B x 4

Outro
|---------------------|
|-------------2-------|
|-3-------7---2-------|
|-1---4-4-5---0-------|
  pmh.....


The End.

Erik
----------------------
erik_heino@hotmail.com
Suggest correction
Give kudos to tab author, rate the tab!
1 2 3 4 5
comments
print report bad tab
4 comments total. Showing first comments.
-1 reply
StuartR 40 wrote on August 23 2006, 12:28 pm

Song is called 'Crown of Thorns'.

-1 reply
_brandon 10 wrote on August 23 2007, 05:05 pm

dumbass!

-1 reply
madbass 600 wrote on August 24 2008, 02:50 am

First of all, if you're gonna tab a great song such as this, at least call it the right title!

guest
You may want to rate the tab now too:
select rating
Please do not post tabs as comments. Select "correction" instead!