Oops, an error
Loading. Please wait.

End Tab

version 1
version 1

Whole song

Interactive

40 views 1 this week
no commentswrite comment
1 2 3 4 5
please rate
add to favorites
launch autoscroll
font size
0
reset
how to read this tab
guitar tuner
Autoscroll
slow
fast
+/-
esc
set tempo
stop
Help us to improve Ultimate-Guitar.com Take our survey!
×
Author
Tuning: B E A D F# B
.    -   palm mute           / - slide up to
\    -   slide down to       ~ - vibrato
h    -   hammer on           b - Bend
p    -   pull off            Suffixes for bend
t    -   tap                 f - full bend     h - half bend
ph   -   pinched harmonic    q - quarter bend t - tap bend
*    -   see comment         ^ - Hold bend     r release bend
x    -   Stuccatto           ~ - vibrato bend
,    -   slight palm mute    () - ghost note, sustained note
"    -   tremolo note        <> - Trill



1:00 – Part 1 - Low volume, gradually increasing
||--------------------------|--------------------------|
||--3--3--3--3--3--3--4--4--|--3--3--3--3--3--3--4--4--|
||--0--0--0--0--0--0--1--1--|--0--0--0--0--0--0--1--1--|
||--------------------------|--------------------------|
||--------------------------|--------------------------|
||--------------------------|--------------------------|



|--------------------------|--------------------------|
|--3--3--3--3--3--3--4--4--|--3--3--3--3--3--3--4--4--|
|--0--0--0--0--0--0--1--1--|--0--0--0--0--0--0--1--1--|
|--------------------------|--------------------------|
|--------------------------|--------------------------|
|--------------------------|--------------------------|


1:14 – Part 2 - Full volume – Four times
|--------------------------------|-------------------------------------------|
|---8--8--8--8--8--8/9--9--9/12--|--12--12--12--12--12--12/13-13—-13/15----|
|---0--0--0--0--0--0----0--0-----|---0---0---0---0---0---0-----0---0---------|
|--------------------------------|-------------------------------------------|
|--------------------------------|-------------------------------------------|
|--------------------------------|-------------------------------------------|



----------------------------------------------|
--15--15--15--15--15—-15/16-16\13-13/15-----|
---0---0---0---0---0---0-----0-----0----------|
----------------------------------------------|
----------------------------------------------|
----------------------------------------------|



-------------------------------------------|
--15--15--15--15--15\13--13--13\12--12\8---|
---0---0---0---0---0------0---0------0-----|
-------------------------------------------|
-------------------------------------------|
-------------------------------------------|
2:07 – Part 3 - Two times
|--15--15--15--15--15--15\-13-13--13\10--|
|--12--12--12--12--12--12-----12--12-----|
|---0---0---0---0---0---0------0---0-----|
|----------------------------------------|
|----------------------------------------|
|----------------------------------------|



--10--10--10--10--10--10\--8--8---8\7--|--7--7--7--7—-7--7\4-4-------|
--12--12--12--12--12--12\-10-10--10\8--|--8--8--8--8—-8--8\6-6/8-----|
---0---0---0---0---0---0------0---0----|--0--0--0--0—-0--0--—0-----|
---------------------------------------|-------------------------------|
---------------------------------------|-------------------------------|
---------------------------------------|-------------------------------|

-------------------------------|
--8--8--8--8--8--8/9-9\6-6/8---|
--0--0--0--0--0--0---0---0-----|
-------------------------------|
-------------------------------|
-------------------------------|

2:34 - Part 4
|------------------------------|-----------------------------|
|--8--8--8--8--8--8/9-9\6-6/8--|--8--8--8--8--8—-8\6-6\3---|
|--0--0--0--0--0--0---0---0----|--0--0--0--0--0—-0---0-----|
|------------------------------|-----------------------------|
|------------------------------|-----------------------------|
|------------------------------|-----------------------------|


-------------------------------|-------------------------------------|
--3--3--3--3--3—-3\1-1p0-------|--0--0--0--0—-0--0--0h1-1/8------|
--0--0--0--0--0—-0---0---------|--0--0--0--0—-0--0--0---0--------|
-------------------------------|-------------------------------------|
-------------------------------|-------------------------------------|
-------------------------------|-------------------------------------|


2:47 - Ending
Sustain that note.
|-------------------||
|--8----------------||
|--0----------------||
|-------------------||
|-------------------||
|-------------------||


End.
Suggest correction
What's this?
You can suggest a correction to this tab. Community and Mods will review your correction and vote to approve or reject it.
comments
We did not receive enough feedback on this tab! Please rate:
print report bad tab
1 2 3 4 5
guest
You may want to rate the tab now too:
select rating
Please do not post tabs as comments. Select "correction" instead!