Oops, an error
Loading. Please wait.

Gravaged A Cryptopsy Tab

version 1
version 1

Whole song

Interactive

173 views 3 this week
no commentswrite comment
1 2 3 4 5
3 more votes to show rating
add to favorites
launch autoscroll
font size
0
reset
how to read this tab
guitar tuner
Autoscroll
slow
fast
+/-
esc
set tempo
stop
Help us to improve Ultimate-Guitar.com Take our survey!
×
Author

Tuning (Low - High): B E A D F# B
                                                                         
|-----------------------------------------------------------------|
|---------66666666--------9---6-----------666666662---------------|
|-33333333--------333333337---4---33333333------------4-----------|
|---------------------------------------------------------2-3-1---|
| pml.....................pm......pml.............pm..........    |
|  backing guitar                                                 |
|-----------------------------------------------------------------|
|-------------------------------------------------2---------------|
|-5-----------------------9---6---5-------------------4-----------|
|-3-----------------------7---4---3-----------------------2-3-1---|
  pm                      pm.........


A                                                Play 5 Times
|-----------------------------------------------------------------|
|---------66666666--------9---6-----------666666662---------------|
|-33333333--------333333337---4---33333333------------4-----------|
|---------------------------------------------------------2-3-1---|
  pml.....................pm......pml.............pm..........


Fill 1
|----------------------------------------------------------|
|-------------5-------4------------------------------------|
|-----3-------3---4-3-2-----------22222222-----------------|
|-1-0-1---1-0-------------11111111--------1111111144444444-|
| pm..    pm..    pm..    pm...............................|
| Guitar 2                                                 |
|----------------------------------------------------------|
|-------------------------------------------------A.H.-----|
|---------------------------------22222222-----------------|
|-------------------------11111111--------11111111-4~------|
                          pm......................


B Guitar 1                                      Play 4 Times
|----------------------------------------------------------|
|-------------5-------4------------------------------------|
|-----3-------3---4-3-2-----------22222222-----------------|
|-1-0-1---1-0-------------11111111--------1111111144444444-|
| pm..    pm..    pm..    pm...............................|
| Guitar 2                                                 |
|----------------------------------------------------------|
|-------------5-------4---------------------------A.H.-----|
|-----3-------3---4-3-2-----------22222222-----------------|
|-1-0-1---1-0-------------11111111--------11111111-4~------|
  pm..    pm..    pm..    pm......................


Repeat A x 4

C
|-----------------------------------------------------------------|
|-----6---5---------------------------6---5-----------------------|
|-2---4---5-------2---5---4---7---2---4---5-----------------------|
|-0-------3-------0---3---2---5---0-------3-------2-2-3-3-2-2-0-0-|
  pm......        pm......................        pml.............

Repeat C x 3
 
D                            Play 8 Times
|---------------------------------|
|-----------------3-------2-------|
|-33332222--------1---4---0-------|
|---------33332222----2-----------|
  pm..............    pm..

Repeat C x 6

D’                           Play 8 Times
|---------------------------------|
|-5---4-----------3-------2-------|
|-3---2---5---4---1---4---0-------|
|---------3---2-------2-----------|
  pm..............    pm..

E                               Play ? Times
|----------------------------------|
|----------------------------------|
|-----2222----22221111-------------|
|-0000----3333--------222211114444-|
  pm...............................

Bass       (1, 2, 3)                                       (4)
|----------------------------------|---------------------------------|
|----------------------------------|---------------------------------|
|-----2-2-----2---1----------------|-----2-2-----2---1---------------|
|-0-------3-----------2---1---4----|-0-------3-----------2---1---4---|
|                                                                    |
| backing guitars                                                    |
|----------------------------------|---------------------------------|
|----------------------------------|---------------------------------|
|-2--------------------------------|-2-------------------------------|
|-0--------------------------------|-0-------------------/---x---\---|

F          (1, 2, 3)                                       (4)
|----------------------------------|---------------------------------|
|-------------4---3----------------|-------------4---3---------------|
|-2---2-2-5---2---1---4---3---6----|-2---2-2-5---2---1---4---3---6---|
|-0-------3-----------2---1---4----|-0-------3-----------2---1---4---|
      pm..                               pm..            pmh.........

Repeat F,  A x 6  ,  &  Fill 1
Repeat B x 4  ,  A x 4

G                                                           Play 4 Times
|----------------------------------|---------------------------------|
|----------------------------------|---------------------------------|
|-2222----1111---------------------|-2222----1111----3---4---6---3---|
|-----3333----22221111222244441111-|-----3333----22221---2---4---1---|
  pm.................................................pmh.............

Outro
|-------|
|-------|
|-2-----|
|-0-----|
  pmh

The End.
Suggest correction
Give kudos to tab author, rate the tab!
1 2 3 4 5
comments
print report bad tab
guest
You may want to rate the tab now too:
select rating
Wanna post a correction for this tab? Suggest correction