Oops, an error
Loading. Please wait.

Graves Of The Fathers Tab

version 1
version 1

Whole song

Interactive

4,183 views 1 this week
no commentswrite comment
1 2 3 4 5
x 3
add to favorites
launch autoscroll
font size
0
reset
how to read this tab
guitar tuner
Autoscroll
slow
fast
+/-
esc
set tempo
stop
Help us to improve Ultimate-Guitar.com Take our survey!
×
GRAVES OF THE FATHERS - Cryptopsy - None So Vile

Tuning (Low - High): B E A D F# B
pml - light pm;  pm - moderate pm;  pmh - heavy pm


Intro
|---------------------4-----------|-------------------------|
|-5---6-----------5---4-----------|-7--6--------5--4--------|
|-5---6-----------5---2-----------|-5--4--6--7--3--2--5--4--|
|-3---4-----------3---------------|-------4--5--------3--2--|
  pmh.....        pm......          pm......................
(Bass)
|---------------------------------|-------------------------|
|---------------------------------|-------------------------|
|---------3---2-------2-----------|-5--4--------3--2--------|
|-3---4-----------3---------------|-------4--5--------3--2--|


A						     Play 3 Times
|-------------------------|-------------------------|
|-------5--4-----4--3-----|-7-\6--------5-\4--------|
|-5--6--3--2--5--2--1--4--|-5-\4--6-\7--3-\2--5-\4--|
|-3--4--------3--------2--|-------4-\5--------3-\2--|
  pm......................


B			 Play 4 Times
|-----------------------------|
|-----------------------------|
|-----------------------------|
|-0-0-0-0---0-0-0-0---0-0-0---|
  pm..........................

C									   Play 2 Times
|---------------------------------|---------------------------------|
|---------------------------------|-----------------------------3-3-|
|---------5-5-4-4-2-2-------------|---------5-5-4-4-2-2-1-1---------|
|-0-0-3-3-------------5-5-3-3-2-2-|-0-0-3-3-----------------3-3-----|
  pm................................................................

Repeat B x 2,  C  &  B x 2

D
|---------------------------------|---------------------------------|
|---------------------------------|-----------------4---3-------3-3-|
|---------5-5-4-4-2-2-------------|---------5-5-4-4-2---1---5-------|
|-0-0-3-3-------------5-5-3-3-2-2-|-0-0-3-3-----------------3-------|
  pm................................................pmh.........pm..

Repeat C,  D  &  C


Fill -  Guitar 1
|--------------------------------------------------------------------|
|--------------------------------------------------------------------|
|---------6-----5--/--8---------6-----5--2--2--2--2--3-2-2-2-3-2-2-2-|
|-000-000-4--0--3--/--6----0----4--0--3--0--0--0--0--1-0-0-0-1-0-0-0-|
  pm......   pm            pm      pm    pmh.........................
Fill -  Guitar 2
|--------------------------------------------------------------------|
|--------------------------------------------------------------------|
|----------------------------------------2--2--2--2--3-2-2-2-3-2-2-2-|
|----------------------------------------0--0--0--0--1-0-0-0-1-0-0-0-|
                                         pmh.........................

E											    p.h.
|--------------------------------------------------------------------------|
|----------------------------------------------------------------------7~--|
|---------6-----5--/--8---------6-----5--/--8---------6-----5--/--8--------|
|-000-000-4--0--3--/--6----0----4--0--3--/--6----0----4--0--3--/--6--------|
  pm......   pm            pm      pm            pm      pm

Repeat E x 4


F1
|-----------------------------------------------------------------|
|-------------------------------------------------3-3-3-3-3-3-3-3-|
|-2-2-2-2-2-2-2-2-5-5-5-5-----------------------------------------|
|-------------------------2-2-2-2-1-1-1-1-1-1-1-1-----------------|
  pm..............................................

F2
|-----------------------------------------------------------------|
|-----------------------------------------3-3-3-3-5-5-5-5-5-5-5-5-|
|-2-2-2-2-2-2-2-2-5-5-5-5-----------------------------------------|
|-------------------------2-2-2-2-1-1-1-1-------------------------|
  pm......................................

Repeat (F1 + F2) x 3 (with F1' + F2')

F1'
|-------------------------------------------------5-5-5-5-5-5-5-5-|
|-----------------------------------------------------------------|
|-2-2-2-2-2-2-2-2-5-5-5-5-----------------------------------------|
|-------------------------2-2-2-2-1-1-1-1-1-1-1-1-----------------|
  pm..............................................

F2'
|-----------------------------------------5-5-5-5-7-7-7-7-7-7-7-7-|
|-----------------------------------------------------------------|
|-2-2-2-2-2-2-2-2-5-5-5-5-----------------------------------------|
|-------------------------2-2-2-2-1-1-1-1-------------------------|
  pm......................................


E'
|--------------------------------------------------------------------------|
|--------------------------------------------------------------------------|
|-2-------------5--/--8---------------5--/--8---------------5--/--8----4~--|
|-0-------------3--/--6---------------3--/--6---------------3--/--6--------|

Repeat E x 5
  
E"
|---------------------------------------------------------------------------|
|-------------------------------------------------------------8---6-\5--/8--|
|---------6-----5--/--8-------6-----5--/--8-------6-----5--/--6---4-\3--/6--|
|-000-000-4--0--3--/--6---0---4--0--3--/--6---0---4--0--3--/--6---4-\3--/6--|
  pm......   pm           pm     pm           pm     pm

Repeat B x 14
Repeat A  many times... (sometimes muting whole riff)


G									Play 10 Times
|-----------------------------------------------------------------|
|---------------------------------------------------------4-4-3-3-|
|-----------------8---6---4---3-------------------2-2-3-3---------|
|-1-1-1-1-2-2-2-2-6---4---2---1---0-0-0-0-1-1-1-1-----------------|
  pm..............pm..............pm..............................

H
|-------3-----|
|-------3-----|  Play 16 Times (fast!)
|-5--4--1-----|
|-3--2--------|
  pm....

Repeat (F1 + F2) x 2
Repeat H x 8
Repeat (F1 + F2) x 2
Repeat E'

Outro
|--------------------------------------------------------------------------|
|------------------------------------------------------------6-------------|
|---------6-----5--/--8-------6-----5--/--8-------6-----5----4----6--3--2--|
|-000-000-4--0--3--/--6---0---4--0--3--/--6---0---4--0--3---------4--1--0--|
  pm......   pm           pm     pm           pm     pm           pm.......



The End.

Erik
----------------------
erik_heino@hotmail.com
Suggest correction
Give kudos to tab author, rate the tab!
1 2 3 4 5
comments
print report bad tab
guest
You may want to rate the tab now too:
select rating
Wanna post a correction for this tab? Suggest correction