Oops, an error
Loading. Please wait.

Mutant Christ Tab

version 1
version 1

Whole song

Interactive

3,750 views 6 this week
1 commentread comment
1 2 3 4 5
excellent!
x 3
add to favorites
launch autoscroll
font size
0
reset
how to read this tab
guitar tuner
Tab Pro tools
  • play this tab
  • loop segment
  • change instrument
  • show fretboard
  • metronome
Autoscroll
slow
fast
+/-
esc
set tempo
stop
Contributor
Difficulty
intermediate
MUTANT CHRIST – Cryptopsy – Blasphemy Made Flesh / Ungentle Exhumation

Tuning (Low - High): B E A D F# B
 

Fill 1
|-------------------------|----------------------------------|
|-------------------------|----------------------------------|
|-2-------2---1---4---3---|-2-------2---1---66663333---------|
|-----3-----------2---1---|-----3-------------------55552222-|
      pml                       pml         pm...............
|-------------------------|----------------------------------|
|-------------------------|----------------------------------|
|-------------------------|-----------------66663333---------|
|-------------------------|-------------------------55552222-|
                                            pm...............


A							 
|-------------------------|----------------------------------|
|-------------------------|----------------------------------|
|-2-------2---1---4---3---|-2-------2---1---66663333---------|
|-----3-----------2---1---|-----3-------------------55552222-|
|     pml                       pml         pm...............|
| harmony					  	     |
|-------------------------|----------------------------------|
|-2-------4---3-----------|-2-------4---3--------------------|
|-2-------2---1---4---3---|-2-------2---1-----------66665555-|
|-----3-----------2---1---|-----3-----------22221111---------|
      pml                       pml         pm...............


B            (1 - ?)				   (?)
|---------------------------------|---------------------|------|
|-------------3-------------------|-------------3-------|------|
|-5-4-2---3---1---2---2-2-2-2-2-2-|-5-4-2---3---1---2---|------|
|-3-2-0---1-------0---0-0-0-0-0-0-|-3-2-0---1-------0---|------|
                      pm..........

C            (1 - ?)				   (?)
|---------------------------------|-----------------|
|-------------3-------------------|-------------3---|
|-5-4-2---3---1---2---------------|-5-4-2---3---1---|
|-3-2-0---1-------0---0-0-000-000-|-3-2-0---1-------|
                      pm..........

D  Guitar 1								  
|------------------------------------------------------------------|
|---------------------------------------------------------44445555-|
|-----------------------------6666--------------------6666---------|
|-0000000055558888777777776666----00000000555588887777-------------|
| pm...............................................................|
|  Guitar 2							   |
|------------------------------------------------------------------|
|---------------------------------------------------------44445555-|
|-77777777--------------------6666--------------------6666---------|
|---------55558888777777776666----00000000555588887777-------------|
  pm...............................................................

E1            (1, 2)                                 (3)
|----------------------------------|----------------------------------|
|---------4---3--------------------|---------666666663333333333333333-|
|-5---4-----------5---4---11111111-|-55554444-------------------------|
|----------------------------------|----------------------------------|
                          pm..........................................
 
E2            (1, 2)                                 (3)
|----------------------------------|----------------------------------|
|---------44443333-----------------|---------666666663333333333333333-|
|-55554444--------5555444411111111-|-55554444-------------------------|
|----------------------------------|----------------------------------|
  pm..................................................................

Repeat E2 x ?
Repeat E1 x ?
Repeat E2 x ?

F1
|---------------------------|---------------------------|
|-2---------------------4-3-|-2-----------------4-------|
|-2---------------------2-1-|-2-----------------2-------|
|-0-------------------------|-0---------------------3---|
                                                    pm

F2
|---------------------------|---------------------------|
|-2---------------------4-3-|-2-----------------4-------|
|-2---------------------2-1-|-2-----------------2---5---|
|-0-------------------------|-0---------------------3---|
                                                   pmh

Repeat (F1 + F2)
Repeat E1 (first two bars only)
Repeat (F1 + F2) x ?  (under guitar solo)
Repeat Fill 1, A x ?, B x ?, C x ?
Repeat E1 x ?
Repeat E2 x ?

Outro
|-------|
|-------|
|-2-----|
|-0-----|
  pmh


The End.
comments
We did not receive enough feedback on this tab! Please rate:
print report bad tab
1 2 3 4 5
1 comment total.
0 reply
sicksucks wrote on February 18 2013, 04:19 pm

|-------------------------|----------------------------------|
|-2-------2---1-----------|-2-------2---1--------------------|
|-2---3---2---1---2---1---|-2---3---2---1---66663333---------|
|-----3-----------2---1---|-----3-------------------55552222-|
pml pml pm...............
|-------------------------|----------------------------------|
|-------------------------|----------------------------------|
|-------------------------|-----------------66663333---------|
|-------------------------|-------------------------55552222-|
pm...............

I want to post or [tab]
guest
You may want to rate the tab now too:
select rating
Please do not post tabs as comments. Select "correction" instead!