Oops, an error
Loading. Please wait.

My Prodigal Sun Tab

version 1
version 1

Whole song

Interactive

43 views 1 this week
no commentswrite comment
1 2 3 4 5
please rate
add to favorites
launch autoscroll
font size
0
reset
how to read this tab
guitar tuner
Tab Pro tools
  • play this tab
  • loop segment
  • change instrument
  • show fretboard
  • metronome
Autoscroll
slow
fast
+/-
esc
set tempo
stop
Contributor
Tuning: B E A D F# B
TABULATURE LEGEND:
" - tremolo             h - hammer on
~ - vibrato             \ - slide down
p - pull off            / - slide down
tr - trill               ^ - pinch harmonics
(),= - sustained note      b - bend string
p.m. - palm muting         t - tapping



[Riff 1]
|---------------------------------|----------------------------[x3]-|
|---------------------------------|---------------------------------|
|---------------------------------|-----------------------------5---|
|---------------------------------|---------------------------4-5---|
|-1-1-2-4-5-2-4-1-4-6-4-4-4-4-4-4-|-1-1-2-4-5-2-4-1-4-6-4-4-4-4-5---|
|-1-1-2-4-5-2-4-1-2-4-2-2-2-2-2-2-|-1-1-2-4-5-2-4-1-2-4-2-2-2-4-----|
  . . . . . . . . . . . . . . . .   . . . . . . . . . . . . .

[Riff 2 (x2)]
|----------------------------------------------|
|----------------------------------------------|
|-------------5--------------5--------------5--|
|-----------4-5------------4-5------------4-5--|
|-4-6-4-4-4-4-5--4-6-4-4-4-4-5--4-6-4-4-4-4-5--|
|-2-4-2-2-2-4----2-4-2-2-2-4----2-4-2-2-2-4----|
  . . . . .      . . . . .      . . . . .

[Riff 1]
|---------------------------------|--------------------------------|
|---------------------------------|--------------------------------|
|---------------------------------|-----------------------------5--|
|---------------------------------|---------------------------4-5--|
|-1-1-2-4-5-2-4-1-4-6-4-4-4-4-4-4-|-1-1-2-4-5-2-4-1-4-6-4-4-4-4-5--|
|-1-1-2-4-5-2-4-1-2-4-2-2-2-2-2-2-|-1-1-2-4-5-2-4-1-2-4-2-2-2-4----|
  . . . . . . . . . . . . . . . .   . . . . . . . . . . . . .

[Riff 3 (x4)]
|------------------------------|------------------------------|
|------------------------------|------------------------------|
|------------------------------|------------------------------|
|---------------------2222-5/6-|---------------------2222-5/6-|
|---------3333----3333---------|-----2222--------3333---------|
|-11112222----4444-------------|-1111----00001111-------------|
[Outro A]
|----------------------|
|----------------------|
|----------------------|
|----------------------|
|-33------66-----66----|
|-11------44-----44----|
| ..      ..     ..    |
|----------------------|
|----------------------|
|----------------------|
|----------------------|
|-33---------66--6-----|
|-11---------44--4-----|
  ..         .. .

[Riff 4] /hard rythm listen cd, pick notes quickly/
|--------------------------------------------------------------[x4]-|
|-------------------------------------------------------------------|
|-------------------------------------------------------------------|
|-------------------------------------------------------------------|
|-------------------------------------------------------------------|
|-0-0-4-4-----1-1-0-0-4-4-----1-1-0-0-4-4-----1-1-0-0-4-4-----------|
  . . . .     . . . . . .     . . . . . .     . . . . . .

   -|------------[x7]-|--------------------|
   -|-----------------|--------------------|
   -|-----------------|--------------------|
   -|-----------------|--------------------|
   -|-----------------|----------3========-|
   -|-0-0-4-4-----1-1-|-0-0--4-4-2========-|
      . . . .     . .   . . . .

[RIFF 2 (x2)]

[Riff 5a (x2)] /quick!!!!..../
|------------------------------|-------------------------------|
|------------------------------|-------------------------------|
|------------------------------|-------------------------------|
|------------------------------|--------------------------4\3--|
|-3--4\3-5\4-6\5-7\6-7\6-7--5--|-4--3--4\3-5\4-6\5-6\5-7--2\1--|
|-1--2\1-3\2-4\3-5\4-5\4-5--3--|-2--1--2\1-3\2-4\3-4\3-5-------|

 ----------------|---------------------------|
 ----------------|---------------------------|
 ----------------|---------------------------|
 -4\3-6\5-7\6-8--|-5--4\3-4\3-4--------6-----|
 -2\1-4\3-5\4-6--|-3--2\1-2\1-2--3223224-----|
 ----------------|---------------------------|
                                 ......

[Riff 5b]
|-------------------------------|---------------------------|
|-------------------------------|---------------------------|
|-------------------------------|---------------------------|
|------------4\3-4\3-6\5-7\6-8--|-5--4\3-4\3-4--------6-----|
|-6\5-6\5-7--2\1-2\1-4\3-5\4-6--|-3--2\1-2\1-2--3223224-----|
|-4\3-4\3-5---------------------|---------------------------|
                                                ......

[RIFF 1]


[RIFF 2 (x2)]
[Outro B]
|-------------------------------------|
|-------------------------------------|
|---------------------8888------------|
|-------------------------------------|
|-555577775555----4444----6-----------|
|-------------6666--------4-----------|
|                         .           |
|-------------------------------------|
|-------------------------------------|
|---------------------8888------------|
|-------------------------------------|
|-555577775555----4444----6-----------|
|-------------6666--------4-----------|
                          .

[Riff 6]
|---------------------------[x11]-|---------|
|---------------------------------|---------|
|---------------------8888--------|---------|
|---------------------------------|---------|
|-555577775555----4444----5h8p7p5-|-7-2-----|
|-------------6666----------------|---0-----|
                                      .


End.
comments
We did not receive enough feedback on this tab! Please rate:
print report bad tab
1 2 3 4 5
I want to post or [tab]
guest
You may want to rate the tab now too:
select rating
Please do not post tabs as comments. Select "correction" instead!