Oops, an error
Loading. Please wait.

Phobophile Tab

version 2
version 2

Whole song

Interactive

4,135 views 6 this week
no commentswrite comment
1 2 3 4 5
accurate
x 4
add to favorites
launch autoscroll
font size
0
reset
how to read this tab
guitar tuner
Tab Pro tools
  • play this tab
  • loop segment
  • change instrument
  • show fretboard
  • metronome
×
Best way to learn
"Phobophile"
Autoscroll
slow
fast
+/-
esc
set tempo
stop
Contributor
PHOBOPHILE - Cryptopsy - None So Vile
Copyright (c) Century Media, 1996

Transcribed By: Andrew Collyer / Erik Heino
this is not my work it is someone elses but see as though no one has the right tabs for 
i decided to put it on the web site the credit goes to the original transcibers not me
Bass is in here to so dont worry
Piano intro
Key 1: G (G A B C D E F# G)
Key 2: C (C D E F G B A C)
Transposition: Standard piano – 87 keys

Melody 1 (0:00)
7|----------------------------------------------------------------|
6|----------------------------------------------------------------|
5|----------------------------------------------------------------|
4|-F#-G-F#-G-E--F#-G-F#-E-F#-B-A-G-F#---G-F#-G---D-E-F---D-E-F----| right hand
3|----------------------------------------------------------------|
2|----------------------------------------------------------------|

6|----------------------------------------------------------------|
5|----------------------------------------------------------------|
4|----------------------------------------------------------------| left hand
3|----------------------------------------------------------------|
2|-E----------------------------------E--------D-------D-------D--|
1|----------------------------------------------------------------|

Melody 1 cont. (0:06)
7 ------------------------------------------------|
6 ------------------------------------------------|
5 ------------------------------------------------|
4 -D-E-F-G-F-E-D-E-F-E-D-C-D-E--EDG-F-E-D-C-D-C-E-| right hand
3 ------------------------------------------------|
2 ------------------------------------------------|

6 ------------------------------------------------|
5 ------------------------------------------------|
4 ------------------------------------------------| left hand
3 ------------------------------------------------|
2 ---------------C--------------------------------|
1 ------------------------------------------------|

Melody 2 (0:11) play 4 times
7|-------------------------------------|
6|-------------------------------------|
5|---B-C-B-----------------------------|
4|-----------F#-G-F#---D-E---C-D-E-C-B-| right hand
3|-------------------------------------|
2|-------------------------------------|

6|-------------------------------------|
5|-------------------------------------|
4|-------------------------------------| left hand
3|-------------------------------------|
2|-B-------B---------C-----C-----C-----|
1|-------------------------------------|

Outro (0:25)
7|------------------------------------|
6|------------------------------------|
5|------------------------------------|
4|-F#-G-F#-G-E--F#-G-F#-E-F#-B-A-G----| right hand
3|------------------------------------|
2|------------------------------------|

6|------------------------------------|
5|------------------------------------|
4|------------------------------------| left hand
3|------------------------------------|
2|-E-----------------------------E----|
1|------------------------------------|

Piano Intro in B-Tuning    (Courtesy of Mike Reeves; Miker_k@yahoo.co.uk)
|------------------------------12-10----------------------------------------|
|13-12h13p12-10-12-13-12-10-11-------13-12---13-12-13------10-11------10-11-|
|-------------------------------------------------------12---------12-------|
|---------------------------------------------------------------------------|
|------------------------------------------12---------10---------10---------|
|------------------------------------------+----------+----------+----------|

|----------------------------------------------------------------------------|
|-----10-11-13-11-10-----10-11-10----------10----101113-11-10-------------10-|
|--12----------------12-----------12-10-12----12--------------12-10-12-10----|
|----------------------------------------------------------------------------|
|10---------------------8----------------------------------------------------|
|+----------------------+----------------------------------------------------|

                                     Play 4 times
|---12-13-12------------------------------------|
|---------------12-13-12-------10---------------|
|---------------------------12-------10-12----9-|
|-----------------------------------------------|
|-7-----------7-----------8--------8--------8---|
|-+-----------+-----------+--------+--------+---|

|----------------------------------------------|
|-13-12131213-12-10-12-13-12-10-12--13~~~------| Guitar feedback
|----------------------------------------------| comes in
|----------------------------------------------| (Note: E)
|-12--------------------------------12---------|
|-+---------------------------------+----------|


Key:
. - palm mute           / - slide up to
\ - slide down to       x – Staccato
h - hammer on           p - pull off
, - slight palm mute    () - ghost note, sustained note
" - tremolo note        <> - Trill
L – left channel only   R – right channel only
* - see comment

Suffixes for bend
f - full bend       h - half bend
q - quarter bend    t - tap bend
^ - Hold bend       r - release bend
~ - vibrato bend

Suffixes for harmonic
ph - pinched harmonic   n – natural/artificial harmonic

Guitar Tuning: B E A D F# B
Bass Tuning: B E A D G

Bass Intro (0:37)                                         Play twice
G|-----------------------------------------------------------------|
D|---------2-----------0-------------------------------------------|
A|-----2-------2---3-------3-2-0-------0---3-------2---3---2---0---|
E|-0-----------------------------3-1-----------1-------------------|
B|-----------------------------------------------------------------|

Riff 1 (0:48)                                          Play 6 times
|-----------------------------------------------------------------|
|---------7777--------5555----------------------------------------|
|-----7777----77778888----8-7-5-------55558888----7777888877775555|
|-5555--------------------------8-6666--------6666----------------|
                          . . . .

Fill 1 (1:13)
|-----------------------|
|------------5----6-----|
|-7----8--3--3----4--6--|
|-5----6--1----------4--|
|                       |
|-----------------------|
|-----------------------|
|-7----8--3--7----8--3--|
|-5----6--1--5----6--1--|

Riff 2 (1:18)           Play 8 times
|---------------------------------|
|---------------------------------|
|-----55558888----55558888----5555|
|-6666--------6666--------6666----|

Fill 2 (1:30)
|---|
|---|
|---|
|-6-|
  .

Riff 3 (1:30) Play twice
   [x7]
|----------|----------|
|----7-/10-|----7--10-|
|-8--5-/8--|-8--5--8--|
|-6--------|-6--------|
             .  .  .

Riff 4
I  (1:40)                     [x2]                              [x2]
|---------------------------------|---------------------------------|
|---------------------------------|---------------------------------|
|-----55558888----55558888----5555|-----44447777----44447777----4444|
|-6666--------6666--------6666----|-5555--------5555--------5555----|


II  (1:46)                    [x2]                              [x2]
|---------------------------------|---------------------------------|
|---------------------------------|---------------------------------|
|-----55558888----55558888----5555|-----44447777----44447777----4444|
|-6666--------6666--------6666----|-5555--------5555--------5555----|
|                                                                   |
|---------------------------------|---------------------------------|
|-----33337777----33337777----3333|-----22225555----22225555----2222|
|-5555--------5555--------5555----|-4444--------4444--------4444----|
|---------------------------------|---------------------------------|


IIIa  (1:53)
|---------------------------------|---------------------------------|
|---------------------------------|-----7---10------7---10------7---| gtr 1
|-----55558888----55558888----5555|-8---5---8---8---5---8---8---5---|
|-6666--------6666--------6666----|-6-----------6-----------6-------|
|                                   .   .   .   .   .   .   .   .   |
|---------------------------------|---------------------------------|
|-----7---10------7---10------7---|-----7---10------7---10------7---| gtr 2
|-8---5---8---8---5---8---8---5---|-8---5---8---8---5---8---8---5---|
|-6-----------6-----------6-------|-6-----------6-----------6-------|
  .   .   .   .   .   .   .   .     .   .   .   .   .   .   .   .

IIIb (1:56)
|---------------------------------|---------------------------------|
|---------------------------------|---------------------------------| gtr 1
|-----44447777----44447777----4444|-----44447777----44447777----4444|
|-5555--------5555--------5555----|-5555--------5555--------5555----|
|                                                                   |
|---------------------------------|---------------------------------|
|---------------------------------|-----22225555--------------------| gtr 2
|-----44447777----44447777----4444|-----------------44447777----4444|
|-5555--------5555--------5555----|-5555--------5555--------5555----|


IV  (2:05)                    [x2]                              [x2]
|---------------------------------|---------------------------------|
|---------------------------------|---------------------------------| gtr 1
|-----55558888----55558888----5555|-----44447777----44447777----4444|
|-6666--------6666--------6666----|-5555--------5555--------5555----|
|                                                                   |
|---------------------------------|---------------------------------|
|-----33337777----33337777----3333|---------------------------------| gtr 2
|-5555--------5555--------5555----|-----44447777----44447777----4444|
|---------------------------------|-5555--------5555--------5555----|


Fill 3 (2:12)      [x2]                    [x2]
|----------------------|-----------------------|
|---------7"-8"-9"-10"-|----------7"-8"-9"-10"-|
|-8-8-8-8--------------|-----------------------|
|-6-6-6-6--------------|-55555555--------------|
  . . . .                ........

Riff 5 (2:18)     [x2]                   [x2]    Play 4 times
|----------------------|----------------------|
|---------7"-8"-9"-10"-|---------7"-8"-9"-10"-| gtr 1
|-8-8-8-8--------------|-7-7-7-7--------------|
|-6-6-6-6--------------|-5-5-5-5--------------|
| . . . .                . . . .              |
|                                             |
|---------7"-8"-9"-10"-|---------7"-8"-9"-10"-|
|----------------------|----------------------| gtr 2
|-8-8-8-8--------------|-7-7-7-7--------------|
|-6-6-6-6--------------|-5-5-5-5--------------|
  . . . .                . . . .

Fill 4 (2:37)    Play twice
|-------------------------|
|----7--10----7--10----7--|
|-8--5--8--8--5--8--8--5--|
|-6--------6--------6-----|
  .  .  .  .  .  .  .  .

Riff 6 (2:40)          Play 6 times
|---------------------------------|
|-4-----------3-------4---8---4---|
|-2---5---3---1---5---2---6---2---|
|-----3---1-------3---------------|
      .   .       .           .

Riff 7 (2:53) play 4 times
|---------------------------------|
|-4-----------3-------4---8---4---|
|-2---5---3---1---5---2---6---2---|
|-----3---1-------3---------------|
                              .

Riff 1 x 2/3 (3:01)
Solo begins: (3:18)

Fill 1 x 1 (3:18)

Riff 8a (3:22)
|-----------------------------------------------------------------|
|-----------------------------------------------------------------|
|-7---------------6---------------7---------------6---------------|
|-5---------------7---------------8---------------4-------77778888|
                                                          pm......

Riff 8b
|-----------------------------------------------------------------|
|-----------------------------------------------------------------|
|-7---------------3-------7-------7---------------6---------------|
|-5---------------4-------5-------8---------------4---------------|

Riff 9                                        Play 2 times
|---------------------------------------------------------|
|-------------------------------------------------77776666|
|-----------------6---3-------------------88887777--------|
|-55558888777755554---1---5555888877775555----------------|

Riff 8a + 8b
Riff 9
Riff 6 x 8


Fill 6 w/Solo ending (4:13)
|--------------------------------------------------|
|--------------------------------------------------|
|-7----------------------------------------8-7-5---|
|-5----------------------------------------------8-|
| .                                        . . . . |
|                                                  |
|----------------12h17p12--------------------------|
|-------------13----------13-----------------------|
|----------14----------------14--------------------|
|-------14----------------------14-----------------|
|-12-15----------------------------15-12~----------|
|--------------------------------------------------|

Riff 2 x 1/8 (4:14)
Riff 1 x 1 (4:16)

Riff 9 w/harmony (4:29)
|---------------------------------------------------------|
|-------------------------------------------------77776666| Gtr1
|-----------------6---3-------------------88887777--------|
|-55558888777755554---1---5555888877775555----------------|
|                                                         |
|-------------------------------------------------55554444|
|-----------------------------------------77776666--------| Gtr2
|-----------------6---3-----------------------------------|
|-55558888777755554---1---5555888877775555----------------|


Outro (Both guitars)
|------------------------------|
|------------------------------|
|-----------------6---2-3------|
|-55558888777755554---0-1------|
                      . .
comments
print report bad tab
I want to post or [tab]
guest
You may want to rate the tab now too:
select rating
Please do not post tabs as comments. Select "correction" instead!