Oops, an error
Loading. Please wait.

Slit Your Guts tab

version 2
version 2

Whole song

Interactive

695 views 3 this week
no commentswrite comment
1 2 3 4 5
1 last vote to show rating
add to favorites
×
Save as Personal and add changes to this tab that will be seen only by you. Learn more ›
×
You can save this tab as Personal to edit and correct it or add notes. All changes will be seen only by you. Learn more »
launch autoscroll
font size
0
reset
how to read this tab
guitar tuner
edit
Autoscroll
slow
fast
+/-
esc
set tempo
stop
Author
Tuning B E A D F# B

 Riff 1 (0:00)
   Gtr. 1
||------------------------------------------------------------------||
||------------------------------------------------------------------||
||-444444447444444474444444744444447444444474444444744444447--------||
||------------------------------------------------------------------||
||------------------------------------------------------------------||
||------------------------------------------------------------------||
||                                                                  ||
|| Gtr. 2                                                           ||
||------------------------------------------------------------------||
||-444444447444444474444444744444447444444474444444744444447--------||
||------------------------------------------------------------------||
||------------------------------------------------------------------||
||------------------------------------------------------------------||
||------------------------------------------------------------------||




 Riff 2 (0:04)
  Gtrs. 1&2                                                        2x
||-------------------------------------------------------------------||
||.-----------------------------------------------------------------.||
||-----------------------------3333----------------3333----55556666--||
||.----------------------------------------------------2222---------.||
||-2222222252222222522222225222----1111111152222222------------------||
||-------------------------------------------------------------------||




 Riff 2a (0:14)
   Gtr. 1
||-------------------------------------------------------------------||
||-------------------------------------------------------------------||
||-----------------------------3333----------------3333----55556666--||
||-----------------------------------------------------2222----------||
||-2222222252222222522222225222----1111111152222222------------------||
||-------------------------------------------------------------------||
||                                                                   ||
|| Gtr. 2                                                            ||
||-------------------------------------------------------------------||
||-4444444474444444744444447444------------74444444------------------||
||-----------------------------3333----------------3333----55556666--||
||-----------------------------------------------------2222----------||
||---------------------------------11111111--------------------------||
||-------------------------------------------------------------------||




 Riff 2 1x (0:18)
 Riff 1a (0:23)
   Gtr. 1
||------------------------------------------------------------------||
||------------------------------------------------------------------||
||-4444444474444444744444447444444474444444744444447444444474444444-||
||------------------------------------------------------------------||
||------------------------------------------------------------------||
||------------------------------------------------------------------||
||                                                                  ||
|| Gtr. 2                                                           ||
||------------------------------------------------------------------||
||-4444444474444444744444447444444474444444-------------------------||
||-----------------------------------------744444447444444474444444-||
||------------------------------------------------------------------||
||------------------------------------------------------------------||
||------------------------------------------------------------------||




 Riff 2 4x (0:27)


 Riff 2a 1x (0:44)


 Riff 2 1x (0:48)



 Riff 3 (0:52 - w/1st Solo)
  Gtrs. 1&2
||------------------------------------------------------------------|
||------------------------------------------------------------------|
||------------------------------------------------------------------|
||-----66553333----3333000011110000----66553333----3333000011115555-|
||-3333--------2222----------------3333--------2222-----------------|
||------------------------------------------------------------------|

 Riff 3 (Cont.)
  Gtrs. 1&2
 |------------------------------------------------------------------||
 |------------------------------------------------------------------||
 |---------------------------------------------3333-----------------||
 |-----66553333----3333000011110000----66553333----666655550---3----||
 |-3333--------2222----------------3333--------------------0---3----||
 |------------------------------------------------------------------||
                                                           .   .



 Riff 4 (1:00)
  Gtrs. 1&2
||------------------------------------------------------------------||
||------------------------------------------------------------------||
||-----------------44444444------------------------44444444---------||
||---------6666------------6666------------6666------------6666-----||
||-------------5555------------5555------------5555------------5555-||
||-44447777------------------------44447777-------------------------||
 Riff 3a (1:05 - w/2nd Solo)
  Gtrs. 1&2
||------------------------------------------------------------------|
||------------------------------------------------------------------|
||------------------------------------------------------------------|
||-----66553333----3333000011115555----66553333----3333000011110000-|
||-3333--------2222----------------3333--------2222-----------------|
||------------------------------------------------------------------|

 Riff 3a (Cont.)
  Gtrs. 1&2
 |--------------------------------------------------------------||
 |--------------------------------------------------------------||
 |---------------------------------------------3333-------------||
 |-----66553333----3333000011115555----66553333----------4------||
 |-3333--------2222----------------3333------------3-5-6-2-6-5--||
 |-------------------------------------------------1-3-4---4-3--||
                                                   . . . . . .



 Riff 5 (1:13)
  Gtrs. 1&2                                                       4x
||------------------------------------------------------------------||
||.----------------------------------------------------------------.||
||------------------------------------------------------------------||
||.----------------------------------------------------------------.||
||-----------------777777776666--------------------777777776666-----||
||-0000000044447777------------5h9-0000000044447777------------5h9--||




 Riff 5a (1:25)
  Gtrs. 1&2
||------------------------------------------------------------------||
||------------------------------------------------------------------||
||------------------------------------------------------------------||
||------------------------------------------------------------------||
||-----------------777777776666--------------------777777776666-----||
||-0000000044447777------------5h9-0000000044447777------------5555-||




 Riff 6 (1:28)
  Gtrs. 1&2                                                           2x
||----------------------------------------------------------------------||
||.-----ah-bend---------------------------ah-bend----------------------.||
||-------6~(6)-----------------------------6~(6)------------------------||
||.------------9-6-8-------8-8/9-6/7-------------9-6-8-------8-8/9-6/7-.||
||-5-6-7-------7-4-6-5-6-7-6-6/7-4/5-5-6-7-------7-4-6-5-6-7-6-6/7-4/5--||
||-3-4-5-------------3-4-5-----------3-4-5-------------3-4-5------------||
   . . .       . . . . . .           . . .       . . . . . .



 Riff 5 3x (1:39)



 Riff 5b (1:48)
  Gtrs. 1&2
||------------------------------------------------------------------||
||------------------------------------------------------------------||
||------------------------------------------------------------------||
||------------------------------------------------------------------||
||-----------------777777776666--------------------777777774---5----||
||-0000000044447777------------5h9-0000000044447777--------2---3----||
                                                           .   .
 Riff 7 (1:51)
   Gtrs. 1&2
||--------------------------------------------------------------|<-Left-Guitar->||
||--------------------------------------------------------------|<-Clean--Tone->||
||--------------------------------------------------------------|---------------||
||--------------------------------------------------------------|-2-2-----------||
||-2---2-------------------2---2----------2---2---3-3-6---2---2-|-----3---1-/-4-||
||-0---0-------------------0---0----------0---0---1-1-4---0---0-|---------------||
|| .   .                   .   .          .   .   . . .   .   .   . . .         ||
|| Bass* (B E A D G)                                                            ||
||---------------------------------3~---------------------------|---------------||
||---------------------------------3~---------------------------|---------------||
||-----------8//14\\987-----------------------------------------|---------------||
||----------7----------87\--------------------------------------|---------------||
||-0---0-0h8---------------0---0----------0---0---1-1-4---0---0-|---------------||
   S   S                   S   S   P      S   S           S   S

  *S= Slap, P= Pop.



 Riff 8 (1:57)
  Gtrs. 1&2
||-----------------------------------------------------------------|
||.----------------------------------------------------------------|
||-----------------3-/-6---------------------------3-/-6-----------|
||.--------2-2-----1-/-4-------------------2-2-----1-/-4-----------|
||-2---2-------3---1-/-4---4-4-4---2---2-------3---1-/-4---4-4-4---|
||-0---0-------------------2-2-2---0---0-------------------2-2-2---|
   .   .   . . .           . . .   .   .   . . .           . . .
 Riff 8 (Cont.)
  Gtrs. 1&2                                                      4x
 |-----------------------------------------------------------------||
 |----------------------------------------------------------------.||
 |-----------------3-/-6---------------------------3-/-6-/-7-\-5---||
 |---------2-2-----1-/-4-------------------2-2-----1-/-4-/-5-\-3--.||
 |-2---2-------3---1-/-4---4-4-4---2---2-------3---1-/-4-/-5-\-3---||
 |-0---0-------------------2-2-2---0---0---------------------------||
   .   .   . . .           . . .   .   .   . . .



 Riff 9 (2:23)
  Gtrs. 1&2                                              2x
||---------------------------------------------------------||
||.-------------------------------------------------------.||
||---------------------------------------------------------||
||.-------------------------------------------------------.||
||-2---2---------------3-3-6---2---2---------------3-3-6---||
||-0---0---------------1-1-4---0---0---------------1-1-4---||
   .   .               . . .   .   .               . . .



 Riff 2b (2:30)
   Gtr. 1
||-----------------------------------------------------------------||
||-----------------------------------------------------------------||
||-------------------------------------------------3333----55556---||
||-----------------------------------------------------2222--------||
||---------------------------------1111111152222222----------------||
||-----------------------------------------------------------------||
||                                                                 ||
|| Gtr. 2                                                          ||
||-----------------------------------------------------------------||
||-----------------------------------------------------------------||
||-----------------------------3333----------------3333----55556---||
||-----------------------------------------------------2222--------||
||-2222222252222222522222225222----1111111152222222----------------||
||-----------------------------------------------------------------||
 Riff 2 2x (2:34)


 Riff 2a 1x (2:42)


 Riff 2 1x (2:47)



 Riff 1b (2:51)
   Gtr. 1
||------------------------------------------------------------------||
||------------------------------------------------------------------||
||-4444444474444444744444447444444474444444744444447444444474444444-||
||------------------------------------------------------------------||
||------------------------------------------------------------------||
||------------------------------------------------------------------||
||                                                                  ||
|| Gtr. 2                                                           ||
||------------------------------------------------------------------||
||-----------------------------------------744444447444444474444444-||
||-4444444474444444744444447444444474444444-------------------------||
||------------------------------------------------------------------||
||------------------------------------------------------------------||
||------------------------------------------------------------------||




 Riff 4 1x (2:56)



 Riff 4a (2:59)
  Gtrs. 1&2
||-------------------------------------------------------------------------||
||-------------------------------------------------------------------------||
||-----------------44444444------------------------------------------------||
||---------6666------------6666--------------------------------------------||
||-------------5555------------5555----5555--------5-6-8-9-8-6-5-----------||
||-44447777------------------------4444----444477773-4-6-7-6-4-3-----------||
                                                   . . . . . . .



 Riff 10 (3:05 - w/3rd Solo)
  Gtrs. 1&2
||----------------------------------------------------------|
||.---------------------------------------------------------|
||-------------------------444455552222222244445555----4444-|
||.----22221111555544442222------------------------1111-----|
||----------------------------------------------------------|
||-0000-----------------------------------------------------|

 Riff 10 (Cont.)
  Gtrs. 1&2                                               4x
 |----------------------------------------------------------||
 |---------------------------------------------------------.||
 |-------------------------444455552222222244445555----4444-||
 |-----22220000555544442222------------------------0000----.||
 |----------------------------------------------------------||
 |-0000-----------------------------------------------------||




 Riff 8 1x (3:29)
 Riff 8a (3:36)
  Gtrs. 1&2
||-----------------------------------------------------------------|
||-----------------------------------------------------------------|
||-----------------3-/-6---------------------------3-/-6-----------|
||---------2-2-----1-/-4-------------------2-2-----1-/-4-----------|
||-2---2-------3---1-/-4---4-4-4---2---2-------3---1-/-4---4-4-4---|
||-0---0-------------------2-2-2---0---0-------------------2-2-2---|
   .   .   . . .           . . .   .   .   . . .           . . .
 Riff 8 (Cont.)
  Gtrs. 1&2
 |-----------------------------------------------------------------||
 |-----------------------------------------------------------------||
 |-----------------3-/-6---------------------------3-/-6-----------||
 |---------2-2-----1-/-4-------------------2-2-----1-/-4-----------||
 |-2---2-------3---1-/-4---4-4-4---2---2-------3---1-/-4---4---4---||
 |-0---0-------------------2-2-2---0---0-------------------2---2---||
   .   .   . . .           . . .   .   .   . . .           .   .



 Riff 5 3x (3:42)


 Riff 5a 1x (3:51)


 Riff 6 1x (3:54)


End.

            
            
Suggest correction
Creating personal tab
Creating personal tab
You can edit any tab online and save it as your Personal.

You can edit, replace or remove any tab part or add personal notes – all changes will be seen only by you.

Personal tabs can be accessed anytime from any device, even offline.
Learn more »
Give kudos to tab author, rate the tab!
1 2 3 4 5
comments
print report bad tab
guest
You may want to rate the tab now too:
select rating
Wanna post a correction for this tab? Suggest correction