Oops, an error
Loading. Please wait.

Soar And Envision Sore Vision Tab

version 1
version 1

Whole song

Interactive

595 views 1 this week
no commentswrite comment
1 2 3 4 5
please rate
add to favorites
launch autoscroll
font size
0
reset
how to read this tab
guitar tuner
Autoscroll
slow
fast
+/-
esc
set tempo
stop
Help us to improve Ultimate-Guitar.com Take our survey!
×
Contributor
Difficulty
Tuning
DL-Spikes 210
intermediate
B F# B E G# C#
Band:  Cryptopsy
Album: And Then You’ll Beg
Song:  Soar And Envision Sore Vision

email me if something is wrong
chito6312@yahoo.com

Tuning 5 half steps down: B-E-A-D-Gb-B 


Guitar one = left  channel
Guitar two = right channel


RIFF 1 (0:00) intro

BASS
|--------13-11-10-------10----------|
|---8-11-------------11----------13-|
|-0---------------10-------12-13----|
|-----------------------------------|
|-----------------------------------|


RIFF 2 (0:02)
Gtr. 1
|------9----------9-12------------------------||
|---11---8------8------10-11-8h9p8h9p8h9p...--||
|----------10-9-------------------------------||
|-7-------------------------------------------||
|---------------------------------------------||
|---------------------------------------------||

RIFF 2 (0:02)
Gtr. 2
|----------------------8-------------------------||
|------10-----------10------8--------------------||
|---11----8-------8------10---9h10p9h10p9h10...--||
|-----------12-10--------------------------------||
|-8----------------------------------------------||
|------------------------------------------------||



RIFF 3 (0:05)
Both Gtrs.
|--------3-times----------|-------------------------------------|
|-------------------------|-------------------------------------|
|-------------------------|-------------------------------------|
|-------------------------|-7---8-------5-----------------------|
|-5-6---3-1-0-3-----5-6---|-5---6---4---3---8---7---3-----5-6---|
|-----2---------2-0-----1-|---------2-------6---5-----2-0-----1-|

RIFF 3 continue
|---------5-times---------|-----------------||
|-------------------------|-----------------||
|-------------------------|-5---5---5---5---||
|-------------------------|-4---4---4---4---||
|-5-6---3-1-0-3-----5-6---|-3---3---3---3---||
|-----2---------2-0-----1-|-2---2---2---2---||
                            ~   ~   ~   ~

RIFF 4 (0:24)
Both Gtrs. = 8 times
|-------------------------------||
|-------------------------------||
|-------------------------------||
|-10\7------------------------7-||
|--8\5--9\6--4/6--4/6--4/6--9-5-||
|-------7\4--2/4--2/4--2/4--7---||
                            . .
RIFF 3b (0:40)
Both Gtr.
|-------------------------------------------------------------|
|-------------------------------------------------------------|
|-------------------------------------------------------------|
|-------------------------------------5-----------7---8-------|
|-5-6---3-1-0-3-----5-6---5-6---3-1-0-3---4---2---5---6---3---|
|-----2---------2-0-----1-----2-----------2---0-----------1---|

RIFF 3b continue
|---------2-times---------|-----3-times-----||
|-------------------------|-----------------||
|-------------------------|-5---5---5---5---||
|-------------------------|-4---4---4---4---||
|-5-6---3-1-0-3-----5-6---|-3---3---3---3---||
|-----2---------2-0-----1-|-2---2---2---2---||
                            ~   ~   ~   ~
RIFF 5 (0:51) 
Gtr. 1
            2 times
|------9----------9-12----------|------9-------------------------|
|---11---8------8------10-11----|---11---8-----------------------|
|----------10-9--------------12-|-7--------10-9h10p9h10p9h10...--|
|-7-----------------------------|--------------------------------|
|-------------------------------|--------------------------------|
|-------------------------------|--------------------------------|

RIFF 5 (0:51) 
Gtr. 2
            2 times
|----------------------8--------|------------------------------------|
|------10-----------10------8---|------10----------------------------|
|---11----8-------8------10---9-|---11----8--------------------------|
|-----------12-10---------------|-----------12-10h12p10h12p10h12...--|
|-8-----------------------------|-8----------------------------------|
|-------------------------------|------------------------------------|
RIFF 6 (0:57)
Both Gtrs.
|-------------------------------------------------------------
|-------------------------------------------------------------
|-------------------------------------------------------------
|----8--------8----8--245754-2--8--------8-------7--5---------
|-7--6--------6-7--6--023532-0--6--------6-6--4--5--3--6------
|-5-----7-8-6---5------------------7-8-6---4--2--------4--6~--
  .     . . .   .     ......       . . .

 ---------------------------------------------------|---BASS---
 ---------------------------------------------------|----------
 ---------------------------------------------------|----------
 ----8--------8----8--245754-2--8--------8-7--5--7--|----5-----
 -7--6--------6-7--6--023532-0--6--------6-5--3--5--|----5-----
 -5-----7-8-6---5------------------7-8-6---5--3--5--|----------
  .     . . .   .     ......       . . .

 -------------------------------------------------------------
 -------------------------------------------------------------
 -------------------------------------------------------------
 ----8--------8----8--245754-2--8--------8-------7--5---------
 -7--6--------6-7--6--023532-0--6--------6-6--4--5--3--6------
 -5-----7-8-6---5------------------7-8-6---4--2--------4--6~--
  .     . . .   .     ......       . . .

 --------------------|-Gtr.2-only-|-Both Gtrs.-|
 --------------------|------------|------------|
 --------------------|------------|------------|
 ----8--------8----8-|-245754-2---|-245754-2---|
 -7--6--------6-7--6-|-023532-0---|-023532-0---|
 -5-----7-8-6---5----|------------|------------|
  .     . . .   .     

|--18-times--|
|------------|
|------------|
|-245754-2---|
|-023532-0---|
|------------|

RIFF 7 (1:30)
Both Gtrs.
|---------7\----------------7\--------------------7\----------------7\--||
|---------6\----------------6\--------------------6\----------------6\--||
|-----------------------------------------------------------------------||
|-9--9--------------9--9------------------9--9--------------9--9--------||
|-8--8--------3--/--8--8--------3---------8--8--------3--/--8--8--------||
|-7--7--+-----1--/--7--7--+-----1--p0h1/--7--7--+-----1--/--7--7--+-----||


RIFF 6 (1:38)
Both Gtrs.
|-------------------------------------------------------------
|-------------------------------------------------------------
|-------------------------------------------------------------
|----8--------8----8--245754-2--8--------8-------7--5---------
|-7--6--------6-7--6--023532-0--6--------6-6--4--5--3--6------
|-5-----7-8-6---5------------------7-8-6---4--2--------4--6~--
  .     . . .   .     ......       . . .



 ---------------------------------------------------||
 ---------------------------------------------------||
 ---------------------------------------------------||
 ----8--------8----8--245754-2--8--------8-7--5--7--||
 -7--6--------6-7--6--023532-0--6--------6-5--3--5--||
 -5-----7-8-6---5------------------7-8-6---5--3--5--||
  .     . . .   .     ......       . . .


Rhythm under solo:
RIFF 7 = 2 times
|---------7\----------------7\------------||
|---------6\----------------6\------------||
|-----------------------------------------||
|-9--9--------------9--9------------------||
|-8--8--------3--/--8--8--------3---------||
|-7--7--+-----1--/--7--7--+-----1--p0h1/--||

RIFF 8 (1:56)
|----------9\--------------------9\--------------
|----------8\--------------------8\--------------
|------------------------------------------------
|-11-11-----------------11-11--------------------
|-10-10--------5--------10-10--------5------\4~--
|--9--9--+-----3~~\2~~---9--9--+-----3--\2/3\2~--

 ----------9\--------------------9\--------------||
 ----------8\--------------------8\--------------||
 ------------------------------------------------||
 -11-11-----------------11-11--------------------||
 -10-10--------5--------10-10--------5-------4---||
 --9--9--+-----3~~\2~~---9--9--+-----3--\2/3-2p0-||

RIFF 4 (2:05)
Both Gtrs. = 4 times
|-------------------------------||
|-------------------------------||
|-------------------------------||
|-10\7------------------------7-||
|--8\5--9\6--4/6--4/6--4/6--9-5-||
|-------7\4--2/4--2/4--2/4--7---||
                     
RIFF 4b (2:13)       
|------------------------------------------------------||
|------------------------------------------------------||
|------------------------------------------------------||
|-101077------------------77101077-------------------7-||
|--8-85599664466446644669955-8-8559966446644664466-9-5-||
|-------774422442244224477--------7744224422442244-7---||
   . ....................... . ................... .

RIFF 4 (2:17)
Both Gtrs. = 6 times
|-------------------------------||
|-------------------------------||
|-------------------------------||
|-10\7------------------------7-||
|--8\5--9\6--4/6--4/6--4/6--9-5-||
|-------7\4--2/4--2/4--2/4--7---||
                            . .
RIFF 4 continues
Both Gtrs. = last time
|---------------------------------------||
|---------------------------------------||
|---------------------------------------||
|-10\7------------------------7---------||
|--8\5--9\6--4/6--4/6--4/6--9-5-3-------||
|-------7\4--2/4--2/4--2/4--7---1-------||
                            . .   


RIFF 9 (2:32) 
Both Gtrs.
|-----------------------------------------------------------------------||
|-----------------------------------------------------------------------||
|-----------------------------------------------------------------------||
|-7---8-------5---3---2---5-----------7-8---7-8---5-3-2-5-----7-8-------||
|-5---6---4---3---1---0---3---4---2---5-6-3-5-6-4-3-1-0-3-4-2-5-6-------||
|---------2-------------------2---0-------1-----2---------2-0-----0h1p0-||

RIFF 10 (2:40)
Both Gtrs.
|--------------------------------------------------|
|--------------------------------------------------|
|---------------10-----------------10--------------|
|---0-----0-----14---0---0---0-----14---0---0---0--|
|-/13\12-14---------10--13--14---------10--13--14--|
|--------------------------------------------------|

RIFF 11 (2:44)
Gtr. 1           
|------3-times------|---------------------|
|-------------------|---------------------|
|-------------------|-888866101088886610\-|
|-------------------|---------------------|
|-6---4--8866-------|---------------------|
|-4---2------000000-|---------------------|

RIFF 11 (2:44)
Gtr. 2
|------3-times------|---------------------|
|-------------------|---------------------|
|-------------------|---------------------|
|-------------------|---------------------|
|-6---4--8866-------|---------22222222----|
|-4---2------000000-|-11111111------------|

RIFF 11 continues
Gtr. 1           
|------3-times------|---------------------|
|-------------------|---------------------|
|-------------------|-888866101088886610\-|
|-------------------|---------------------|
|-6---4--8866-------|---------------------|
|-4---2------000000-|---------------------|

RIFF 11 continues
Gtr. 2
|------3-times------|---------------------|
|-------------------|---------------------|
|-------------------|---------------------|
|-------------------|---------------------|
|-6---4--8866-------|---------22222222----|
|-4---2------000000-|-11111111------------|

RIFF 11 continues
Gtr. 1
|-------------------------------------------------------------------------|
|-------------------------------------------------------------------------|
|-----------------------------------------------------888866101088886610\-|
|-------------------------------------------------------------------------|
|-6---4--8866-------6---4---8-5-7---6---4--8866---------------------------|
|-4---2------000000-4---2---6-3-5---4---2------000000---------------------|

RIFF 11 continues
Gtr. 2
|-------------------------------------------------------------------------|
|-------------------------------------------------------------------------|
|-------------------------------------------------------------------------|
|-------------------------------------------------------------------------|
|-6---4--8866-------6---4---8-5-7---6---4--8866---------------22222222----|
|-4---2------000000-4---2---6-3-5---4---2------000000-11111111------------|

RIFF 11 continues
Gtr. 1           
|------3-times------|---------------------||
|-------------------|---------------------||
|-------------------|-888866101088886610\-||
|-------------------|---------------------||
|-6---4--8866-------|---------------------||
|-4---2------000000-|---------------------||

RIFF 11 continues
Gtr. 2
|------3-times------|---------------------||
|-------------------|---------------------||
|-------------------|---------------------||
|-------------------|---------------------||
|-6---4--8866-------|---------22222222----||
|-4---2------000000-|-11111111------------||

RIFF 12 (3:05)
Both Gtrs. 
|-------5-times--------|---last-one----||
|----------------------|---------------||
|----------------------|---------------||
|--------7--5----------|--------7--5---||
|-6---4--5--3---6------|-6---4--5--3---||
|-4---2---------4--6~--|-4---2---------||

RIFF 11 (3:14)
Gtr. 1           
|------3-times------|---------------------|
|-------------------|---------------------|
|-------------------|-888866101088886610\-|
|-------------------|---------------------|
|-6---4--8866-------|---------------------|
|-4---2------000000-|---------------------|

RIFF 11 (3:14)
Gtr. 2
|------3-times------|---------------------|
|-------------------|---------------------|
|-------------------|---------------------|
|-------------------|---------------------|
|-6---4--8866-------|---------22222222----|
|-4---2------000000-|-11111111------------|

RIFF 11 continues
Gtr. 1           
|------3-times------|---------------------|
|-------------------|---------------------|
|-------------------|-888866101088886610\-|
|-------------------|---------------------|
|-6---4--8866-------|---------------------|
|-4---2------000000-|---------------------|

RIFF 11 continues
Gtr. 2
|------3-times------|---------------------|
|-------------------|---------------------|
|-------------------|---------------------|
|-------------------|---------------------|
|-6---4--8866-------|---------22222222----|
|-4---2------000000-|-11111111------------|

RIFF 11 ending
Gtr. 1
|---------------------------------||
|---------------------------------||
|---------------------------------||
|---------------------------------||
|-6---4--8866-------6---4---8-5-7-||
|-4---2------000000-4---2---6-3-5-||

RIFF 11 ending
Gtr. 2
|---------------------------------||
|---------------------------------||
|---------------------------------||
|---------------------------------||
|-6---4--8866-------6---4---8-5-7-||
|-4---2------000000-4---2---6-3-5-||

END
comments
We did not receive enough feedback on this tab! Please rate:
print report bad tab
1 2 3 4 5
I want to post or [tab]
guest
You may want to rate the tab now too:
select rating
Please do not post tabs as comments. Select "correction" instead!