Oops, an error
Loading. Please wait.

Black Panther Bass Tab

2,608 views 1 this week
no commentswrite comment
1 2 3 4 5
1 last vote to show rating
add to favorites
launch autoscroll
font size
0
reset
guitar tuner
Autoscroll
slow
fast
+/-
esc
set tempo
stop
Help us to improve Ultimate-Guitar.com Take our survey!
×
Author
Artist: Crystal Castles
Album: Crystal Castles
Song: Black Panther
Tuning: Standard
Tabber: AndyMaq

Here's the bass tab for (in my opinion) Crystal Castles' best song!

G-----------------|
D---7---7---7---7-| x8
A-----------------|
E-5---5---5---5---|

G-------------------------------------5---5---5---5-----------------|
D---7---7---7---7---3---3---3---3---------------------2---2---2---2-| x6
A-----------------------------------3---3---3---3-------------------|
E-5---5---5---5---1---1---1---1---------------------0---0---0---0---|

G-----------------|
D---7---7---7---7-| x8
A-----------------|
E-5---5---5---5---|

G-------------------------------------5---5---5---5-----------------|
D---7---7---7---7---3---3---3---3---------------------2---2---2---2-| x4
A-----------------------------------3---3---3---3-------------------|
E-5---5---5---5---1---1---1---1---------------------0---0---0---0---|

G-----------------|
D---7---7---7---7-| x16
A-----------------|
E-5---5---5---5---|

G-------------------------------------5---5---5---5-----------------|
D---7---7---7---7---3---3---3---3---------------------2---2---2---2-| x8
A-----------------------------------3---3---3---3-------------------|
E-5---5---5---5---1---1---1---1---------------------0---0---0---0---|

Hope you all like it!

@ndy
Suggest correction
Give kudos to tab author, rate the tab!
1 2 3 4 5
comments
print report bad tab
guest
You may want to rate the tab now too:
select rating
Wanna post a correction for this tab? Suggest correction