Oops, an error
Loading. Please wait.

Plage Tab

version 1
version 1

Whole song

71,365 views 51 this week
2 commentsread comments
1 2 3 4 5
x 11
add to favorites
launch autoscroll
font size
0
reset
how to read this tab
guitar tuner
Autoscroll
slow
fast
+/-
esc
set tempo
stop
Help us to improve Ultimate-Guitar.com Take our survey!
×
Author
Difficulty
novice
Crystal Fighter - Plage

Normal Tuning

this is my first tab so if you have any complayns tell me!


[Intro]

E|-------7-----------7------------9-----------7------|
B|---------9-----------9------------10-----------9---|
G|--9--------9--8--------8--9---------9--8--------8--|
D|---------------------------------------------------|
A|---------------------------------------------------|
E|---------------------------------------------------|(x2)

[Verse 1]

E|-------7-----------7------------9-----------7------|
B|---------9-----------9------------9-----------9----|
G|--9--------9--8--------8--9---------9--8--------8--|
D|---------------------------------------------------|
A|---------------------------------------------------|
E|---------------------------------------------------|(x12)

Do you want to go
to the plage with me?
I'm going down-down-down
there for the morning,
most beautiful girl I've ever seen.
Calm down-down-down,
my love is calling.

Do you want to go
to the plage with me?
I'm going down-down-down
there for the morning,
most beautiful girl I've ever seen.
Calm down-down-down,
my love is calling.

After the two verses the guitar plays:

E|----------|  |---------7-------9-------7----------|
B|----------|  |------9-------9-------9-----9--7--9-|
G|-----6--8-|  |-9----------------------------------|
D|--9-------|  |------------------------------------|
A|----------|  |------------------------------------|
E|----------|  |------------------------------------|(x4)


[Chorus 1]

E|--12--|
B|--12--|
G|------|
D|------|
A|------|
E|------|

Come over here with your heart

E|------7------7-----------|
B|------9------9-------10--|
G|------9------8-------10--|
D|------9------9-------12--|
A|-------------------------|
E|-------------------------|

And I will love your heart with mine.

[Verse 2]

    E      Emaj7    C#m     Emaj7
                               
E|----------7--------9-------7--|
B|--12------9--------9-------9--|
G|--13------8--------9-------8--|
D|--14------9--------11------9--|
A|--14------7-------------------|
E|--12--------------------------|(x4)

Do you want to go
to the plage with me?
I'm going down-down-down
there for the morning,
most beautiful girl I've ever seen.
Calm down-down-down,
my love is calling.

Adter the second verse the first guitar keeps playing the chords. The second guitar goes 
back to:

Guitar 1

    E     Emaj7     C#m     Emaj7
                               
E|----------7--------9-------7--|
B|--12------9--------9-------9--|
G|--13------8--------9-------8--|
D|--14------9--------11------9--|
A|--14------7-------------------|
E|--12--------------------------|(x4)

guitar 2

E|----------|  |---------7-------9-------7----------|
B|----------|  |------9-------9-------9-----9--7--9-|
G|-----6--8-|  |-9----------------------------------|
D|--9-------|  |------------------------------------|
D|----------|  |------------------------------------|
E|----------|  |------------------------------------|

It's half-past the moonlight.
Nobody would see us go.
(And I wonder) If....
Maybe you will look into my eyes
and you will see just what you done to me.

guitar stops playing

Time is short. You know you only live one life.
It was love at first sight.
And being by your side is the only thing on my mind

E|----------|
B|----------|
G|-----6--8-|
D|--9-------|
D|----------|
E|----------|

(So)

    E     Emaj7     C#m     Emaj7
E|----------7--------9-------7--|
B|--12------9--------9-------9--|
G|--13------8--------9-------8--|
D|--14------9--------11------9--|
A|--14------7-------------------|
E|--12--------------------------|

guitar 2

E|----------| |---------7-------9-------7----------|
B|----------| |------9-------9-------9-----9--7--9-|
G|-----6--8-| |-9----------------------------------|
D|--9-------| |------------------------------------|
D|----------| |------------------------------------|
E|----------| |------------------------------------|


Do you want to go
to the plage with me?
I'm going down-down-down
there for the morning,
most beautiful girl I've ever seen.
Calm down-down-down,
my love is calling.

    E     Emaj7     C#m     Emaj7

E|----------7--------9-------7--|
B|--12------9--------9-------9--|
G|--13------8--------9-------8--|
D|--14------9--------11------9--|
A|--14------7-------------------|
E|--12--------------------------|


Come over here with your heart
And I will love your heart with mine.

    E     Emaj7     C#m     Emaj7

E|----------7--------9-------7--|
B|--12------9--------9-------9--|
G|--13------8--------9-------8--|
D|--14------9--------11------9--|
A|--14------7-------------------|
E|--12--------------------------|

guitar 2

E|----------|  |---------7-------9-------7----------|
B|----------|  |------9-------9-------9-----9--7--9-|
G|-----6--8-|  |-9----------------------------------|
D|--9-------|  |------------------------------------|
D|----------|  |------------------------------------|
E|----------|  |------------------------------------|


So do you want to go
to the plage with me?
I'm going down-down-down
there for the morning,
most beautiful girl I've ever seen.
Calm down-down-down,
my love is calling.

E|--7--|
B|--9--|
G|--9--|
D|--9--|
A|--7--|
E|--7--|

http://crystalfighters.com/
Suggest correction
comments
print report bad tab
2 comments total.
+2 reply
verastakenborg 31 Jan 18, 2012 10:28 AM


E|-------7-----------7------------9-----------7------|
B|---------9-----------9------------10----------9----|
G|--9--------9--8--------8--9---------9--8--------8--|
D|---------------------------------------------------|
A|---------------------------------------------------|
E|---------------------------------------------------|


hi,, I think the 9 has to be a 10 at the end. (:
greetings, Vera

+1 reply
wout130 186 Jan 18, 2012 12:26 PM

I think you're right. I wil upload a new version when i have the time :D

guest
You may want to rate the tab now too:
select rating
Wanna post a correction for this tab? Suggest correction