Oops, an error
Loading. Please wait.

Ai Wo Torimodose chords

version 1
version 1

Whole song

Interactive

1,501 views 33 this week
no commentswrite comment
1 2 3 4 5
3 more votes to show rating
add to favorites
×
Save as Personal and add changes to this tab that will be seen only by you. Learn more ›
×
You can save this tab as Personal to edit and correct it or add notes. All changes will be seen only by you. Learn more »
launch autoscroll
font size
0
reset
transpose
0
reset
simplify chords
display chords
guitar tuner
backing track
0:00
0:00
edit
Autoscroll
slow
fast
+/-
esc
set tempo
stop
Author
Difficulty
Strumming
There is no strumming pattern for this song yet. and get +5 IQ
Opening from 80s Manly Anime HOKUTO NO KEN aka FIST OF THE NORTH STAR
Performed by CRYSTAL KING


ATTATATATATATATATATAATATATAAAATATTATATATTATATATATATAAT!!!


[INTRO]

     Em             Am       D          Am       Bm          D
E|------------------------------------------------------------------------------|
B|------------------------------------------------------------------------------|
G|------------------------------------------------------------------------------|
D|-------------2----------------------------------------------------------------|
A|---7-5-7~---------0-2-3-5---5-3-2—----0—-------2----------/5~-----------------|
E|------------------------------------------------------------------------------|

     Em             Am       D          Am       Bm          D        C  B
E|------------------------------------------------------------------------------|
B|------------------------------------------------------------------------------|
G|--------------------------------------------------------------------5--4------|
D|-------------2------------------------------------------------------5--4------|
A|---7-5-7~---------0-2-3-5---5-3-2—----0—-------2----------/5~----0--3--2------|
E|------------------------------------------------------------------------------|


[VERSE 1]

Em
YOU wa SHOCK 
D            C          D 
ai de sora ga ochite kuru 
Em 
YOU wa SHOCK 
D               C        D 
ore no mune ni ochite kuru 
 
Em           Am                 Bm 
atsui kokoro kusari de tsunai demo 
       Am   B  
ima wa muda da yo 
Em                 Am               Bm       B 
jama suru yatsu wa yubisaki hitotsu de DOWN sa 
 
Em 
YOU wa SHOCK 
D          C          D 
ai de kodou hayaku naru 
Em 
YOU wa SHOCK 
D           C          D 
ore no kodou hayaku naru

Em          Am              Bm 
omae motome samayou kokoro ima 
       Am  B 
atsuku moete iru 
Em              Am              Bm      B 
subete tokashi muzan ni tobichiru hazu sa


[CHORUS]

Em                 D 
ore to no ai wo mamoru tame 
Am              B 
omae wa tabidachi 
Am     Bm C           B
ashita wo miushinatta 
Em               D        Am              B
hohoemi wasureta kao nado mitaku wa nai sa 
Am Bm            C7M 
ai wo torimodose 


[INTERLUDE]

   Em                                   D                                        C
E|--------------------15--14-----12---|--------------------------|--------------/15---|
B|-15p--------15--12------------------|-15p-------15-15-15-------|-(15)/--------------|
G|------------------------------------|--------------------------|--------------------|
D|------------------------------------|--------------------------|--------------------|
A|------------------------------------|--------------------------|--------------------|
E|------------------------------------|--------------------------|--------------------|

   Am                                                      Em                  C   B
E|-15p---15p------------(15)/-----------17p-------(17)-15-----------------------------|
B|---------------------------------------------------------X---15p---(15)/------------|
G|------------------------------------------------------------------------------------|
D|-----------------------------------------------------------------------------10--9--|
A|-----------------------------------------------------------------------------10--9--|
E|-----------------------------------------------------------------------------8---7--|


[VERSE 2]

Em 
YOU wa SHOCK 
D            C        D 
ai de yami wo kirisaite 
Em 
YOU wa SHOCK 
D              C       D 
ore no yami wo kirisaite 
 
Em               Am                Bm
daremo futari no yasuragi kowasu koto 
        Am   B
deki wa shinai sa 
Em              Am           Bm        B 
hikitsuke au kizuna wa hanarenai nido to 


[CHORUS]
 
Em                 D 
ore to no ai wo mamoru tame 
Am              B 
omae wa tabidachi 
Am     Bm C           B
ashita wo miushinatta 
Em               D        Am              B
hohoemi wasureta kao nado mitaku wa nai sa 
Am Bm            C7M 
ai wo torimodose


[OUTRO]

Em D A/C# C

     Em             Am       D          F       
E|--------------------------------------------------|
B|--------------------------------------------------|
G|--------------------------------------------------|
D|-------------2------------------------------------|
A|---7-5-7~---------0-2-3-5---5-3-2-----------------|
E|--------------------------------------1-----------|

     Em             Am       D          Am       Bm          D
E|------------------------------------------------------------------------------|
B|------------------------------------------------------------------------------|
G|------------------------------------------------------------------------------|
D|-------------2----------------------------------------------------------------|
A|---7-5-7~---------0-2-3-5---5-3-2—----0—-------2----------/5~-----------5---7-|
E|----------------------------------------------------------------------7---7---|



OMAE WA MOU SHINDEIRU!!



************************************

| (n)  Ghost note
| p    Pull-off
| /    Slide up
| ~    Vibrato

************************************
Suggest correction
Creating personal tab
Creating personal tab
You can edit any tab online and save it as your Personal.

You can edit, replace or remove any tab part or add personal notes – all changes will be seen only by you.

Personal tabs can be accessed anytime from any device, even offline.
Learn more »
Give kudos to tab author, rate the tab!
1 2 3 4 5
comments
print report bad tab
guest
You may want to rate the tab now too:
select rating
Wanna post a correction for this tab? Suggest correction