Oops, an error
Loading. Please wait.

A Deer Mistaking Candles For Headlights tab

by Crywank
1,579 views 24 this week
1 commentread comment
1 2 3 4 5
x 7
add to favorites
×
Save as Personal and add changes to this tab that will be seen only by you. Learn more ›
×
You can save this tab as Personal to edit and correct it or add notes. All changes will be seen only by you. Learn more »
launch autoscroll
font size
0
reset
how to read this tab
guitar tuner
edit
Autoscroll
slow
fast
+/-
esc
set tempo
stop
I originally tabbed this out by ear in standard tuning, however i saw a video of James Clayton of crywank
playing this song. I would say this tab is spot on now although the original tab in standard was also 
correct, (same notes, different frets) but the tuning was wrong and this version is much easier to play.

[Intro]

d|--------------------------------------------------------------------------------------------|
A|--------------------------------------------------------------------------------------------|
F|-----5-----------2------------9------------5-----------2------------9-------------9---------|
D|---0---0---0---0---0---0----0---0----0---0---0---0---0---0---0----0---0----0----0---0----0--|
A|-6-------6---3-------3---10-------10---6-------6---3-------3---10-------10---10-------10----|
D|--------------------------------------------------------------------------------------------|(x4)


d|-----------------------------------------------------------------------------------------------------------|
A|-----------------------------------------------------------------------------------------------------------|
F|-----5-----------2------------9------------5-----------2------------9-------------9-------------9----------|
D|---0---0---0---0---0---0----0---0----0---0---0---0---0---0---0----0---0----0----0---0----0----0---0----0---|
A|-6-------6---3-------3---10-------10---6-------6---3-------3---10-------10---10-------10---10-------10---10|
D|-----------------------------------------------------------------------------------------------------------|


[Chorus]

d|----------------------------------------------------|
A|----------------------------------------------------|
F|-----7-----------5-----------4-----------0----------|
D|---0---0---0---7---7---0---0---0---0---0---0---0----|
A|-8-------8---0-------0---5-------0---1-------0------|
D|----------------------------------------------------|(x10)


[Bridge]

d|--------------------------------------------------------------|
A|-----------------5-----------------------5--------------------|
F|-----0-----------------------0--------------------------------|
D|---0---0---0---0---0---0---0---0---0---0---0---0--------------|
A|-5-------5---5-------5---5-------5---5-------5----------------|
D|--------------------------------------------------------------|(x1)


d|--------------------------------------------------------------|
A|-----------------3-----------------------3--------------------|
F|-----0-----------------------0--------------------------------|
D|---0---0---0---0---0---0---0---0---0---0---0---0--------------|
A|-3-------3---3-------3---3-------3---3-------3----------------|
D|--------------------------------------------------------------|(x1)


d|--------------------------------------------------------------|
A|-----------------2-----------------------2--------------------|
F|-----0-----------------------0----------------------0---------|
D|---0---0---0---0---0---0---0---0---0---0---0---0----2---------|
A|-2-------2---2-------2---2-------2---2-------2------0---------|
D|--------------------------------------------------------------|(x1)
                                                   
                                                      "That i said i was"
[Verse]

d|--------------------------------------------------------------------------------------------|
A|--------------------------------------------------------------------------------------------|
F|-----5-----------2------------9------------5-----------2------------9-------------9---------|
D|---0---0---0---0---0---0----0---0----0---0---0---0---0---0---0----0---0----0----0---0----0--|
A|-6-------6---3-------3---10-------10---6-------6---3-------3---10-------10---10-------10----|
D|--------------------------------------------------------------------------------------------|(x3)



[Outro]

e|----------------------------------------------------|
B|-----------------6-----------------------5----------|
G|-----5-----------------------4----------------------|
D|---0---0---0---0---0---0---0---0---0---0---0---0----|
A|-6-------6---6-------6---5-------5---5-------5------|
E|----------------------------------------------------|(x5)


e|------------------------------------------|
B|-----------------6-------------------5----|
G|-----5-----------------------4------------|
D|---0---0---0---0---0---0---0---0---0------|
A|-6-------6---6-------6---5-------5--------|
E|------------------------------------------|(x1)


Lyrics:

You can call me a coward and you'd be correct 
oh my neck is safely off the line 
now I'm keeping my mouth shut until this is over 
Why bother speaking my mind? 
You can call me a liar and that would be true 
though I do disagree, I don't challenge you 
I am docile and lazy, I show no respect 
You can call me a coward and you'd be correct 

Does the blank stare scare you more than the frown? 
Am I the reason you feel down? 
Distant but rational, bringer of rage 
to get to a level where I will engage 
I am a tentacle, incapacitated obstacle 
I am obsolete and apathetic, thoughtlessly apologetic 

Watch my actions, or lack thereof 
Negate the person, I said I was. 

You could call me a Phony and I would agree 
Oh I see the many versions of me that I perform 
Moulded to suit 
I know the real me just convolutes 

You see who I am and that's scares me 
You see who I am and that's scary

************************************

| x   Dead note
| g   Grace note
| (n) Ghost note
| h   Hammer-on
| p   Pull-off
| r   Release
| >   Accented note
| t   Tapping
| b   Bend
| br  Bend release
| pb  Pre-bend
| pbr Pre-bend release
| /   Slide up
| \   Slide down
| ~   Vibrato
| s   Slap
| P   Pop
| PM  Palm mute
| TR  Trill
| N   Tremolo

************************************

            
            
Suggest correction
Creating personal tab
Creating personal tab
You can edit any tab online and save it as your Personal.

You can edit, replace or remove any tab part or add personal notes – all changes will be seen only by you.

Personal tabs can be accessed anytime from any device, even offline.
Learn more »
comments
print report bad tab
1 comment total.
0 reply
molisna 130 Oct 09, 2017 11:31 AM

i want to learn every Crywank song and this is so helpful, cheers dude!

guest
You may want to rate the tab now too:
select rating
Wanna post a correction for this tab? Suggest correction