Oops, an error
Loading. Please wait.

I Am In Great Pain Please Help Me Tab

55 views 9 this week
1 commentread comment
1 2 3 4 5
2 more votes to show rating
add to favorites
launch autoscroll
font size
0
reset
how to read this tab
guitar tuner
Autoscroll
slow
fast
+/-
esc
set tempo
stop
Help us to improve Ultimate-Guitar.com Take our survey!
×
Author
Tuning
D A D F# A D
Wubba lubba dub dub!

*note the tuning is actually open D minor so the third string is F not F#


[Intro]

D |--------------------------|
A |---------------0----------|
F |--------------------------|
D |-0---0---0---0------------|
A |--------------------------|
D |-0---0---0---0------------|


[Verse 1]

D |--------------------------------------------------------------------------------|
A |---------------------------------------------------------------------------0----|
F |-------0h4-------0h4-------0h4---------------0h2-------0---0h7---0---0----------|
D |---0---------0---------0---------0---0---0---------0-------------------0--------|
A |-5---5-----5---5-----5---5-----5---0---3---3-----3---3---8-----8---0-----0------|
D |--------------------------------------------------------------------------------| (X1)

D |--------------------------------------------------------------------------------|
A |---------------------------------------------------------------------------0----|
F |-------0h4-------0h4-------0h4-------0-------0h2-------0---0h7---0---0----------|
D |---0---------0---------0---------0-------0---------0-------------------0--------|
A |-5---5-----5---5-----5---5-----5---5---3---3-----3---3---8-----8---0-----0------|
D |--------------------------------------------------------------------------------| (X11)

  For the riffs on the verses continuously hammer on and pull off the 4th and 2nd frets
of the G string, this is how James Clayton himself plays it: https://www.youtube.com/watch?v=WO45Il6GF80


[Chorus]

D |---------------------------------------------------------------------|
A |-------0---------------0---------------0---------------0-------------|
F |---------------0---------------0---------------0---------------0-----|
D |---0-------0-------0-------0-------0-------0-------0-------0---------|
A |---------------------------------------------------------------------|
D |-0---0---0---0---0---0---0---0---8---8---8---8---7---7---7---7-------| (x2)

D |---------------------------------------------------------------------|
A |---------------0---------------0---------------0---------------0-----|
F |-------0---------------0---------------0---------------0-------------|
D |---0-------0-------0-------0-------0-------0-------0-------0---------|
A |---------------------------------------------------------------------|
D |-0---0---0---0---0---0---0---0---8---8---8---8---7---7---7---7-------| (x1)

D |---------------------------------------------------------------------|
A |---------------0---------------0---------------0---------------------|
F |-------0---------------0---------------0---------------0-------------|
D |---0-------0-------0-------0-------0-------0-------0-------0---0-----|
A |---------------------------------------------------------------------|
D |-0---0---0---0---0---0---0---0---8---8---8---8---7---7---7---7-------| (x1)


[Verse 2]

D |--------------------------------------------------------------------------------|
A |---------------------------------------------------------------------------0----|
F |-------0h4-------0h4-------0h4-------0-------0h2-------0---0h7---0---0----------|
D |---0---------0---------0---------0-------0---------0-------------------0--------|
A |-5---5-----5---5-----5---5-----5---5---3---3-----3---3---8-----8---0-----0------|
D |--------------------------------------------------------------------------------| (X8)


[Chorus]

D |---------------------------------------------------------------------|
A |-------0---------------0---------------0---------------0-------------|
F |---------------0---------------0---------------0---------------0-----|
D |---0-------0-------0-------0-------0-------0-------0-------0---------|
A |---------------------------------------------------------------------|
D |-0---0---0---0---0---0---0---0---8---8---8---8---7---7---7---7-------| (x2)

D |---------------------------------------------------------------------|
A |---------------0---------------0---------------0---------------0-----|
F |-------0---------------0---------------0---------------0-------------|
D |---0-------0-------0-------0-------0-------0-------0-------0---------|
A |---------------------------------------------------------------------|
D |-0---0---0---0---0---0---0---0---8---8---8---8---7---7---7---7-------| (x1)

D |---------------------------------------------------------------------|
A |---------------0---------------0---------------0---------------------|
F |-------0---------------0---------------0---------------0-------------|
D |---0-------0-------0-------0-------0-------0-------0-------0---0-----|
A |---------------------------------------------------------------------|
D |-0---0---0---0---0---0---0---0---8---8---8---8---7---7---7---7-------| (x1)


[Outro]

D |---------------------------------------------------------------------------0----|
A |---------------------------------------------------------------------------0----|
F |-------0h4-------0h4-------0h4-------0h4-------0h4-------0h4-------0h4-----4----|
D |---0---------0---------0---------0---------0---------0---------0-----------0----|
A |-5---5-----5---5-----5---5-----5---5-----5---5-----5---5-----5---5-----5---5----|
D |--------------------------------------------------------------------------------| (x1)

Remember to hammer on and pull off the G string, the same as the verses.

Lyrics:

Floundering attempts at making some sort of sense 
Striving for significance - In a universe that will not give a shit 
The myth of Sisyphus 
Authenticity is important, but I'm not sure who I am anymore 
I'm at the point now where I'm also doubting who I was before 
The arbitrary nature of thought leaves me alone and paranoid 
Synonyms for a void 

Nobody belongs, time brings invalidation. 
Find selfish solace in mutual trepidation 

The absurd condition of human existence - a struggle to embrace 
I do not get the point that I am supposed to miss 
The passive submission or preferred resistance - just give me breathing space 
The meaning I used to find - overanalyzed, displaced. 
Dispense your goals and actions into something trivial 
Pick apart pointless projects, my brain sings with vitriol 
I don't reflect, I destroy with thinking 
The examined life is not worth living 

Look at my sad life in detail and you'll see it is a comedy 
Sometimes I wish I was a goat


************************************

| h  Hammer-on   

************************************
Suggest correction
Give kudos to tab author, rate the tab!
1 2 3 4 5
comments
print report bad tab
1 comment total.
0 reply
SenkiDala 10 6 days ago, edited at 02:04 pm

And together we're gonna run around, Morty, we're gonna... do all kinds of wonderful things, Morty. Just you and me, Morty. The outside world is our enemy, Morty... we're the only.... friends we've got, Morty! It's just Rick and Morty. Rick and Morty and their adventures, Morty.. RICK AND MORTY FOREVER AND FOREVER A HUNDRED YEARS Rick and Morty.. some...things.. Me and Rick and Morty runnin' around and... Rick and Morty time... a- all day long forever.. all a - a hundred days Rick and Morty! forever a hundred times.... OVER and over Rick and Morty... adventures dot com.. W W W dot at Rick and Morty dot com w..w..w... Rick and Morty adventures.. ah- hundred years..... every minute Rick and Morty dot com.... w w w a hundred times... Rick and Morty dot com......."

guest
You may want to rate the tab now too:
select rating
Wanna post a correction for this tab? Suggest correction