Oops, an error
Loading. Please wait.

This Song Title Was Too Long So Now Its Shorter tab

by Crywank
1,088 views 3 this week
4 commentsread comments
1 2 3 4 5
x 3
add to favorites
×
Save as Personal and add changes to this tab that will be seen only by you. Learn more ›
×
You can save this tab as Personal to edit and correct it or add notes. All changes will be seen only by you. Learn more »
launch autoscroll
font size
0
reset
how to read this tab
guitar tuner
edit
Autoscroll
slow
fast
+/-
esc
set tempo
stop
"^" This is a tie, the way i'm using it means when you play a note and slide to another note, 
you don't play the note you slid too  


[Intro]

E |-9----12--^----0-0^-----0--------------------------------------------------|
B |--7-0---12\9-0-5-5\4-2p0-0-0-----------------------------------------------|
G#|---------------------------------------------------------------------------| x4
E |---0------0-------0-------0------------------------------------------------|
B |---------------------------------------------------------------------------|
E |---------------------------------------------------------------------------|


[Verse]

E |-9----12--^----0-0^-----0--------------------------------------------------|
B |--7-0---12\9-0-5-5\4-2p0-0-0-----------------------------------------------|
G#|---------------------------------------------------------------------------| x8
E |---0------0-------0-------0------------------------------------------------|
B |---------------------------------------------------------------------------|
E |---------------------------------------------------------------------------|


[Pre-Chorus]

E |-0--0--0--0--0--0---7------------------------------------------------------|
B |-9-9-9\7-7-7\5-5-5-9-------------------------------------------------------|
G#|---------------------------------------------------------------------------|  
E |-0-----0-----0-------------------------------------------------------------|
B |---------------------------------------------------------------------------|
E |---------------------------------------------------------------------------|

E |-0--0--0--0--0--0--9-7-----------------------------------------------------|
B |-9-9-9\7-7-7\5-5-5---------------------------------------------------------|
G#|---------------------------------------------------------------------------| 
E |-0-----0-----0-------------------------------------------------------------|
B |---------------------------------------------------------------------------|
E |---------------------------------------------------------------------------|

E |-0--0--0--0--0--0---7------------------------------------------------------|
B |-9-9-9\7-7-7\5-5-5-9-------------------------------------------------------|
G#|---------------------------------------------------------------------------|  
E |-0-----0-----0-------------------------------------------------------------|
B |---------------------------------------------------------------------------|
E |---------------------------------------------------------------------------|

E |-0--0--0--0--0--0--9-7-----------------------------------------------------|
B |-9-9-9\7-7-7\5-5-5---------------------------------------------------------|
G#|---------------------------------------------------------------------------| 
E |-0-----0-----0-------------------------------------------------------------|
B |---------------------------------------------------------------------------|
E |---------------------------------------------------------------------------|


[Chorus]

E |---------------------------------------------------------------------------|
B |-9--9------7--7--7-7-7-----------------------------------------------------|
G#|-7-7-7-7-7-5-5-5-5-5-5-----------------------------------------------------| x4
E |-0---------0-----0-0-0-----------------------------------------------------|
B |-0---------0-----0-0-0-----------------------------------------------------|
E |---------------------------------------------------------------------------|


[Verse]

E |-9----12--^----0-0^-----0--------------------------------------------------|
B |--7-0---12\9-0-5-5\4-2p0-0-0------------------------------------------------|
G#|---------------------------------------------------------------------------| x12
E |---0------0-------0-------0------------------------------------------------|
B |---------------------------------------------------------------------------|
E |---------------------------------------------------------------------------|


[Outro]

E |-0--0--0--0--0--0--0--0--0--0--0--0-------7--------------------------------|
B |-9-9-9-9-9-9\7-7-7-7-7-7\5-5-5-5-5-5-9-------------------------------------|
G#|---------------------------------------------------------------------------| 
E |-0-----0-----0-----0-----0-----0-------------------------------------------|
B |---------------------------------------------------------------------------|
E |---------------------------------------------------------------------------|

E |-0--0--0--0--0--0--0--0--0--0--0--0-9-----7--------------------------------|
B |-9-9-9-9-9-9\7-7-7-7-7-7\5-5-5-5-5-5---------------------------------------|
G#|---------------------------------------------------------------------------| 
E |-0-----0-----0-----0-----0-----0-------------------------------------------|
B |---------------------------------------------------------------------------|
E |---------------------------------------------------------------------------|

E |-0--0--0--0--0--0--0--0--0--0--0--0-------7--------------------------------|
B |-9-9-9-9-9-9\7-7-7-7-7-7\5-5-5-5-5-5-9-------------------------------------|
G#|---------------------------------------------------------------------------| 
E |-0-----0-----0-----0-----0-----0-------------------------------------------|
B |---------------------------------------------------------------------------|
E |---------------------------------------------------------------------------|

E |-0--0--0--0--0--0--0--0--0--0--0--0-9-----7--------------------------------|
B |-9-9-9-9-9-9\7-7-7-7-7-7\5-5-5-5-5-5---------------------------------------|
G#|---------------------------------------------------------------------------| 
E |-0-----0-----0-----0-----0-----0-------------------------------------------|
B |---------------------------------------------------------------------------|
E |---------------------------------------------------------------------------|

E |---------------------------------------------------------------------------|
B |-9--9------7--7--7-7-7-----------------------------------------------------|
G#|-7-7-7-7-7-5-5-5-5-5-5-----------------------------------------------------| x4
E |-0---------0-----0-0-0-----------------------------------------------------|
B |-0---------0-----0-0-0-----------------------------------------------------|
E |---------------------------------------------------------------------------|

************************************

| ^   Tie
| p   Pull-off
| \   Slide down


************************************
Suggest correction
Creating personal tab
Creating personal tab
You can edit any tab online and save it as your Personal.

You can edit, replace or remove any tab part or add personal notes – all changes will be seen only by you.

Personal tabs can be accessed anytime from any device, even offline.
Learn more »
Give kudos to tab author, rate the tab!
1 2 3 4 5
comments
print report bad tab
4 comments total. Showing first comments.
+1 reply
RiskyRhysee 210 Aug 24, 2016 10:01 PM

I don't think it's quite right but only cause the song was written on a mountain dulcimer, it sounds kinda close though. Your tab has inspired me to meticulously learn this song, i've slowed the song down so i can make out the notes, once i've figured it out i might add it onto you're tab if that's ok? Also what are your thoughts on crywanks new album?

guest
You may want to rate the tab now too:
select rating
Wanna post a correction for this tab? Suggest correction