Oops, an error
Loading. Please wait.

Waste tab

by Crywank
1,699 views 21 this week
4 commentsread comments
1 2 3 4 5
x 4
add to favorites
×
Save as Personal and add changes to this tab that will be seen only by you. Learn more ›
×
You can save this tab as Personal to edit and correct it or add notes. All changes will be seen only by you. Learn more »
launch autoscroll
font size
0
reset
how to read this tab
guitar tuner
edit
Autoscroll
slow
fast
+/-
esc
set tempo
stop
Author
Difficulty
[Intro/Verse]

Part 1:
e|---------------------------------------------------------|
B|---0-----0-----0-----0-----0-----0-----0-----0-----------|
G|--0-0---0-0---0-0---0-0---0-0---0-0---0-0---0-0----------|  x2 as Intro
D|---------------------------------------------------------|  x4 with lyrics
A|7-----5-----7-----5-----2-----9-----2-----10-------------|  
E|---------------------------------------------------------|

It's as if I believe the more that I squeeze this pillow between my thighs 

the more likely the chance, I'll find romance if it somehow becomes alive. 

I share my bed with a bad brain spilt ash and cum stains almost every night 

Please find me a drug to replace the love that is slowly leaving my life



Part 2:
e|--------------------------------------------------------------------------------------------0----|
B|---0-----0-----0-----0-----0-----0-----0-----0-----0-----0-----3-----3-----0-----0-----3--3------|
G|--0-0---0-0---0-0---0-0---0-0---0-0---0-0---0-0---2-0---2-0---2-0---2-0---2-0---2-0---0-0--------|
D|-------------------------------------------------------------------------------------------------|  x2
A|7-----7-----7-----7-----5-----5-----5-----5-----3-----3-----3-----3-----3-----3-----3------------|
E|-------------------------------------------------------------------------------------------------|


you know you're wasting away, wasting your days


            
            
Suggest correction
Creating personal tab
Creating personal tab
You can edit any tab online and save it as your Personal.

You can edit, replace or remove any tab part or add personal notes – all changes will be seen only by you.

Personal tabs can be accessed anytime from any device, even offline.
Learn more »
comments
print report bad tab
4 comments total. Showing first comments.
+2 reply
propertyisrob 104 Apr 10, 2016 11:11 AM

It would be useful to add the lyrics. Here they are:

It's as if I believe the more that I squeeze this pillow between my thighs
the more likely the chance, I'll find romance if it somehow becomes alive.
I share my bed with a bad brain spilt ash and cum stains almost every night
Please find me a drug to replace the love that is slowly leaving my life

you know you're wasting away, wasting your days

0 reply
propertyisrob 104 Apr 10, 2016 11:11 AM

It would be useful to add the lyrics. Here they are:

It's as if I believe the more that I squeeze this pillow between my thighs
the more likely the chance, I'll find romance if it somehow becomes alive.
I share my bed with a bad brain spilt ash and cum stains almost every night
Please find me a drug to replace the love that is slowly leaving my life

you know you're wasting away, wasting your days

0 reply
propertyisrob 104 Apr 10, 2016 11:17 AM

Awesome tab though, thank you.

guest
You may want to rate the tab now too:
select rating
Wanna post a correction for this tab? Suggest correction