Oops, an error
Loading. Please wait.

Stomach It tab

version 1
version 1

Whole song

  • I created this tab because I couldn't find any ver... Show more
by Crywolf
409 views 51 this week
no commentswrite comment
1 2 3 4 5
1 last vote to show rating
add to favorites
×
Save as Personal and add changes to this tab that will be seen only by you. Learn more ›
×
You can save this tab as Personal to edit and correct it or add notes. All changes will be seen only by you. Learn more »
launch autoscroll
font size
0
reset
how to read this tab
guitar tuner
edit
Autoscroll
slow
fast
+/-
esc
set tempo
stop
About this tab version
I created this tab because I couldn't find any version of it online, and thought I'd share it on here. Here is the actual song: https://www.youtube.com/watch?v=CmEK31ghdFM . This tab has tried to be as close to the original as possible, however it is not perfect. Was this info helpful? Yes No
[Intro]
e|-------------------------------------------------------------|
B|-------------------------------------------------------------|
G|---------4-----4-----4-----4-----4-----4-----4-----4---------|
D|-------------------------------------------------------------|
A|-----4------4-----4-----4-----4-----4-----4-----4------------|
E|-------------------------------------------------------------|

e|-------------------------------------------------------------|
B|-------------------------------------------------------------|
G|---------4-----4-----4-----4-----4-----4-----4-----4---------|
D|-------------------------------------------------------------|
A|-----2------2-----2-----2-----2-----2-----2-----2------------|
E|-------------------------------------------------------------|
Repeat for all Verses^^

[Verse]
I felt a break in a sacred place where your hands don't heal
These are the reasons you’re ruled by the things you feel
Out of the deep waters and all their intricacies
This is the real face of all your enemies

I felt you escape into empty space where my heart can't feel
Down in that darkness, you met all the things you feared
And I knew
I knew there was nothing I could do

[Chorus]
e|------------------------------------|
B|------------------------------------|
G|---------2-----2-----2-----2--------|
D|------------------------------------|
A|-----0------0-----0-----0-----------|
E|------------------------------------|

e|------------------------------------|
B|------------------------------------|
G|---------4-----4-----4-----4--------|
D|------------------------------------|
A|-----4------4-----4-----4-----------|
E|------------------------------------|

e|------------------------------------|
B|------------------------------------|
G|---------1-----1-----1-----1--------|
D|------------------------------------|
A|-----2------2-----2-----2-----------|
E|------------------------------------|

e|------------------------------------|
B|------------------------------------|
G|---------2-----2-----2-----2--------|
D|------------------------------------|
A|-----0------0-----0-----0-----------|
E|------------------------------------|
Could you stomach it anymore, could you stand to be a breath away
Can you feel the way your face distorts, did you think that it could be this way?
I can hear you from behind the door, I can feel you from a mile away
As you're growing out of my control, will you watch me as I fade away?

[Verse]
You can't escape forever, mistaking smoke for heaven's light
It's not follow or a fade to black, and white
Oh I could take you home
Pretend the best's still ahead
Maybe in the sun you'll see
You got what you want
But not what you need

[Bridge]
e|-------------------------------------------------------------|
B|-------------------------------------------------------------|
G|---------4-----4-----4-----4-----4-----4-----4-----4---------|
D|-------------------------------------------------------------|
A|-----4------4-----4-----4-----4-----4-----4-----4------------|
E|-------------------------------------------------------------|

e|-------------------------------------------------------------|
B|-------------------------------------------------------------|
G|---------4-----4-----4-----4-----4-----4-----4-----4---------|
D|-------------------------------------------------------------|
A|-----2------2-----2-----2-----2-----2-----2-----2------------|
E|-------------------------------------------------------------|

e|------------------------------------------------------------------|
B|------------------------------------------------------------------|
G|---------4-----4-----1-----1-----2-----2-----4-----4-----4-----4--|
D|------------------------------------------------------------------|
A|-----2------2-----2-----2-----0-----0-----4-----4-----2-----2-----|
E|------------------------------------------------------------------|
If I'm afraid
Then you are the darkness that made me feel this way

[Chorus]
Could you stomach it anymore, could you stand to be a breath away
Can you feel the way your face distorts, did you think that it could be this way?
I can hear you from behind the door, I can feel you from a mile away
As you're growing out of my control, will you watch me as I fade away?

[Outro]
e|-------------------------------------------------------------|
B|-------------------------------------------------------------|
G|---------4-----4-----4-----4-----4-----4-----4-----4---------|
D|-------------------------------------------------------------|
A|-----2------2-----2-----2-----2-----2-----2-----2------------|
E|-------------------------------------------------------------|

e|--------------------------------------------|
B|--------------------------------------------|
G|---------1-----1-----2-----2-----2-----2----|
D|--------------------------------------------|
A|-----2------2-----0-----0-----0-----0-------|
E|--------------------------------------------|

e|-------------------------------------------------------------|
B|-------------------------------------------------------------|
G|---------4-----4-----4-----4-----4-----4-----4-----4---------|
D|-------------------------------------------------------------|
A|-----2------2-----2-----2-----2-----2-----2-----2------------|
E|-------------------------------------------------------------|

e|------------------------------------------|
B|------------------------------------------|
G|---------4-----4-----4-----4-----2-----2--|
D|------------------------------------------|
A|-----4------4-----4-----4-----2-----0-----|
E|------------------------------------------|
Bless my darkness, bless my light
I lost my soul in your skin tones, now
Bless my darkness, bless my light
I lost my soul in your skin tones, now
Bless my darkness, bless my light
I lost my soul in your skin tones, now

            
            
Suggest correction
Creating personal tab
Creating personal tab
You can edit any tab online and save it as your Personal.

You can edit, replace or remove any tab part or add personal notes – all changes will be seen only by you.

Personal tabs can be accessed anytime from any device, even offline.
Learn more »
Give kudos to tab author, rate the tab!
1 2 3 4 5
comments
print report bad tab
guest
You may want to rate the tab now too:
select rating
Wanna post a correction for this tab? Suggest correction