Oops, an error
Loading. Please wait.

Stomach It Acoustic tab

version 2
version 2

Whole song

  • I created this tab because I couldn't find any ver... Show more
by Crywolf
91 views 15 this week
no commentswrite comment
1 2 3 4 5
3 more votes to show rating
add to favorites
×
Save as Personal and add changes to this tab that will be seen only by you. Learn more ›
×
You can save this tab as Personal to edit and correct it or add notes. All changes will be seen only by you. Learn more »
launch autoscroll
font size
0
reset
how to read this tab
guitar tuner
edit
Autoscroll
slow
fast
+/-
esc
set tempo
stop
Acoustic - https://www.youtube.com/watch?v=kj3cu-wrWK8

[Intro]

e|-----------------------------------------------------------------|
B|---0---0---0---0---0---0---0---0---0---0---0---0---0---0---0---0-|
G|-----------------------------------------------------------------|
D|-----------------------------------------------------------------| x2
A|-4---4---4---4---4---4---4---4---2---2---2---2---2---2---2---2---|
E|-----------------------------------------------------------------|

[Verse]

e|-----------------------------------------------------------------|
B|---0---0---0---0---0---0---0---0---0---0---0---0---0---0---0---0-|
G|-----------------------------------------------------------------|
D|-----------------------------------------------------------------| x10
A|-4---4---4---4---4---4---4---4---2---2---2---2---2---2---2---2---|
E|-----------------------------------------------------------------|

I felt a break in a sacred place where your hands don't heal
These are the reasons you’re ruled by the things you feel
Out of the deep waters and all their intricacies
This is the real face of all your enemies

I felt you escape into empty space where my heart can't feel
Down in that darkness, you met all the things you feared
And when the temperature rose, I saw your eyes
I saw your eyes

[Chorus]

e|-----------------------------------------------------------------|
B|-----------------------------------------------------------------|
G|---1---1---1---1---1---1---1---1---1---1---1---1---1---1---1---1-|
D|-----------------------------------------------------------------| x4
A|-0---0---0---0---0---0---0---0---4---4---4---4---2---2---2---2---|
E|-----------------------------------------------------------------|

Could you stomach it anymore?
Could you stand to be a breath away?
Can you feel the way your face distorts?
Did you think that it could be this way?
I can hear you from behind the door
I can feel you from a mile away
Running faster but without control
Will you watch me as I fade away?

[Bridge] 

e|-----------------------------------------------------------------|
B|-----------------------------------------------------------------|
G|---1---1---1---1---1---1---1---1---1---1---1---1---1---1---1---1-|
D|-----------------------------------------------------------------| x4
A|-0---0---0---0---0---0---0---0---4---4---4---4---2---2---2---2---|
E|-----------------------------------------------------------------|

If I am afraid then you are the darkness that made me feel this way 
There's a knot in my gut, there's sand in my bed
There's a demon that keeps me stirring
And I have reasoned through all the things that I do 
But this pain is so alluring

[Chorus]

e|-----------------------------------------------------------------|
B|-----------------------------------------------------------------|
G|---1---1---1---1---1---1---1---1---1---1---1---1---1---1---1---1-|
D|-----------------------------------------------------------------| x4
A|-0---0---0---0---0---0---0---0---4---4---4---4---2---2---2---2---|
E|-----------------------------------------------------------------|

Could you stomach it anymore?
Could you stand to be a breath away?
Can you feel the way your face distorts?
Did you think that it could be this way?
I can hear you from behind the door
I can feel you from a mile away
Running faster but without control
Will you watch me as I fade away?

[Outro]

e|-----------------------------------------------------------------------------------------------------------|
B|-----------------------------------------------------------------------------------------------------------|
G|---1---1---1---1---1---1---1---1---1---1---1---1---1---1---1---1---1---1---1---1---2---2---2---2--1---1----|
D|-----------------------------------------------------------------------------------------------------------|
A|-4---4---4---4---4---4---4---4---4---4---4---4---4---4---2---2---0---0---0---0---0---0---0---0---0---0---0-|
E|-----------------------------------------------------------------------------------------------------------|

e|-----------------------|
B|-----------------------|
G|-1---1---1---1---1---1-|
D|-----------------------| x7
A|---0---0---0---0---0---|
E|-----------------------|

Bless my darkness 
Bless my light
I lost my soul in your skin tones 

Bless my darkness 
Bless my light
I lost my soul in your skin tones now

Bless my darkness 
Bless my light
I lost my soul in your skin tones now

Bless my darkness 
Bless my light
I lost my soul in your skin tones now

Bless my darkness 
Bless my light
I lost my soul in your skin tones, I lost my soul in your skin tones

Bless my darkness 
Bless my light
I lost my soul in your skin tones now

Bless my darkness 
Bless my light
I lost my soul in your skin tones now


            
            
Suggest correction
Creating personal tab
Creating personal tab
You can edit any tab online and save it as your Personal.

You can edit, replace or remove any tab part or add personal notes – all changes will be seen only by you.

Personal tabs can be accessed anytime from any device, even offline.
Learn more »
Give kudos to tab author, rate the tab!
1 2 3 4 5
comments
print report bad tab
guest
You may want to rate the tab now too:
select rating
Wanna post a correction for this tab? Suggest correction