Oops, an error
Loading. Please wait.

Siempre tab

version 1
version 1

Whole song

41 views 1 this week
no commentswrite comment
1 2 3 4 5
3 more votes to show rating
add to favorites
×
Save as Personal and add changes to this tab that will be seen only by you. Learn more ›
×
You can save this tab as Personal to edit and correct it or add notes. All changes will be seen only by you. Learn more »
launch autoscroll
font size
0
reset
how to read this tab
guitar tuner
edit
Autoscroll
slow
fast
+/-
esc
set tempo
stop
q onda, me presento de nuevo soy gelu hernandez,
espero q les guste mi travajo, o q les sirva de algo
va solo chequense los tiempos va pq neta q da hueva
enseñarselos paso a paso o mejor vean mi video por yotube
pongan "gerardo hernandez(siempre)"


En esta parte una lira ase un arpegio

Cuando te conoci crei ke eras especial
pero me di cuenta ke no me di cuenta realmente
ke eras como las demas pero no me importa sabes
EN MI MENTE  SIEMPRE ESTARAS
     A
A |--0----------------|
D |-------------------|
G |----2---2---2----2-|
B |------2---0----0---|sin distor
   F#
E |-2-----------------
A |-------------------|
D |-------------------|
G |----2---2---2----2-|
B |------2---0----0---|
    D
E |-0-----------------
A |-------------------|
D |-------------------|
G |----2---2---2----2-|
B |------3---5----3---|
     E
E |-0----------------------|
A |------------------------|
D |------------------------|
G |----1---1----1---1------|
B |------0--------0--------|
E |---------O--------------|

otra lira ase

B |5-----------------5------|
e |--7547-7/5/4--054---4----| con distor suave

B |5-----5----5---------------|
e |-54754----7--45---7/5/4----|

B |--5-----5-----------5-----|
e |7---4------7547-----------|

lira 2 Después sin distor mientras
 por la otra lira esta acompañando con
A    F#    D     E

siento ke jamas
te podre olvidar
por todos lo momentos
ke me has echo iorar
creo ke jamas te podre borrar
i en mi mente estaras
atormentando nada mas

A ---0-0--0---|
D |--2-2--2---|
G |--2-2--2---|
B |--5-5--5---|sin distor
e |--5-5--4---|


A    F#    D     E


E |-5----------|
A |------------|
D |--7-7-7-7---|
G |---6---6----|x2  con distor
B |-----5------|
e |------------|

D |-----------7---7------7-----|x2
G |-999-7777-6-7-6-6/7-6---6-7-|

A
siento ke jamas
F#
te podre olvidar
D
por todos lo momentos
    E
ke me has echo iorar
A
creo ke jamas
F#
te podre borrar
    D
i en mi mente estaras
E
atormentando nada mas

CORO
      C#   F#    Bm     E
porke io estaba mucho mejor sin ti
    C#      F#
i ahora tendre ke pagar
Bm     E
un amor ke no me dan
      C#   F#    Bm     E
porke io estaba mucho mejor sin ti
    C#      F#
i ahora tendre ke pagar
Bm     E
un amor ke no me dan

pre coro 2
E |-5----------------|
A |------------------|
D |--7-7-------7-7---|
G |---6---------6----|x3
B |---------5--------|
e |------------------|


coro 2
         A      F#     D     E
Siempre SiemprE siempre estaras en mi mente corazón
   A      F#     D   E
siempre estaras en mi mente corazón

Lira 1 esto entra por un lado
  E  y  D con octavas
E |-----------|
A |-7-----5---|
D |-x-----x---|
G |-9-----7---|
B |-----------|
e |-----------|

pre verso

E |-5----------|
A |------------|
D |--7-7-7-7---|
G |---6---6----|x2
B |-----5------|
e |------------|

D |-----------7---7------7-----|x2
G |-999-7777-6-7-6-6/7-6---6-7-|

A mute
siento ke jamas
F# mute
te podre olvidar
D mute
por todos lo momentos
    E mute
ke me has echo iorar
A
creo ke jamas
F#
te podre borrar
    D
i en mi mente estaras
E
atormentando nada mas

CORO
      C#   F#    Bm     E
porke io estaba mucho mejor sin ti
    C#      F#
i ahora tendre ke pagar
Bm     E
un amor ke no me dan
      C#   F#    Bm     E
porke io estaba mucho mejor sin ti
    C#      F#
i ahora tendre ke pagar
Bm     E
un amor ke no me dan


lira 1 armonicos
B |5---5----------5---5---5-----------5-5-5--------5-5-5--|
e |--4---7-7-5-4----4---7---4-7-5-4----7-5-4-7-5-4--7-5-4-|

         A      F#     D     E
Siempre SiemprE siempre estaras en mi mente corazón
   A      F#     D   E
siempre estaras en mi mente corazón

Lira 1 esto entra por un lado
  E  y  D con octavas
E |-----------|
A |-7-----5---|
D |-x-----x---|
G |-9-----7---|
B |-----------|
e |-----------|

Cuatro y Medio
Es todo, saludos a SOBREDOSISS  y a los cuates
Esta rola sela dedico a mi ex (Graciela) y aunq al principio
no la valore pues horiata estoy bien triste por q yano esta
con migo(aun te amo)
Quejas o sugerencias a luisger_91 @

            
            
Suggest correction
Creating personal tab
Creating personal tab
You can edit any tab online and save it as your Personal.

You can edit, replace or remove any tab part or add personal notes – all changes will be seen only by you.

Personal tabs can be accessed anytime from any device, even offline.
Learn more »
Give kudos to tab author, rate the tab!
1 2 3 4 5
comments
print report bad tab
guest
Wanna post a correction for this tab? Suggest correction