Oops, an error
Loading. Please wait.

Te Fuiste tab

18 views 1 this week
no commentswrite comment
1 2 3 4 5
3 more votes to show rating
add to favorites
×
Save as Personal and add changes to this tab that will be seen only by you. Learn more ›
×
You can save this tab as Personal to edit and correct it or add notes. All changes will be seen only by you. Learn more »
launch autoscroll
font size
0
reset
how to read this tab
guitar tuner
edit
Autoscroll
slow
fast
+/-
esc
set tempo
stop
ESTA ROLA ESTA CHIDA
BUENO TAL VES NO ESTA AL 100 %
DIGAMOS QUE ES COMO LA BASE
LO QUE A KI LES PONGO
NECESITAN ESCUCHARLA ESTA MUY SENCILLA
SUERTE

JOZ3AR


SIN DISTORSION


es una y una

 |----------------------|
 |----------------------|
 |------7---7-7-7-7/6--7|
 |------x---x-x-x-x/x--7|
 |------5---5-5-5-5/4---|
 |----------------------|

 |---------------------------|
 |---------------------------|
 |------7---7-7-7-7/6----6-7-|
 |------x---x-x-x-x/x--7-----|
 |------5---5-5-5-5/4--------|
 |---------------------------|

yaaaaaa!!
ya no estas aqui otra vez
 |----------------------|
 |----------------------|
 |--77------77----------|
 |--77--55--77--55------|
 |--55--55--55--55------|
 |------33------33------|


por quien?

 |------------------------------------|
 |------------------------------------|
 |------7---7-7-x-7-x-7/6-6-x-6-6-x-6-|
 |------x---x-x-x-x-x-x/x-x-x-x-x-x-x-|   X4
 |------5---5-5-x-5-x-5/4-4-x-4-4-x-4-|
 |------------------------------------|


 |-----------------------------------|
 |-----------------------------------|
 |---7-7-9-9-11-11-11-11-11-11-11----|
 |---x-x-x-x-x--x--x--x--x--x--x-----|
 |---5-5-7-7-9--9--9--9--9--9--9-----|
 |-----------------------------------|

 |-----------------------------|
 |-----------------------------|
 |---7-7-9-9-7-7-7-7-7-7-7-----|
 |---x-x-x-x-x-x-x-x-x-x-x-----|
 |---5-5-7-7-5-5-5-5-5-5-5-----|
 |-----------------------------|

no un momento mas y tu ya no estaras
pues dejaste atras lo que me prometiste aller

 |--------------------------------------------------|
 |--------------------------------------------------|
 |--7-7-7-7----------------------6-7-6-----6/7-6----|
 |--7-7-7-7-5-5-5-5------------7---------7--/7---X4-|
 |--5-5-5-5-5-5-5-5--x4-----------------------------|
 |----------3-3-3-3---------------------------------|
  PM****************

por que?
si estamanos nosotros si muy bien
para que te vaz dejandome
 |------------------------|
 |------------------------|
 |--7-7-7-7---------------|
 |--7-7-7-7--5-5-5-5--x4--|
 |--5-5-5-5--5-5-5-5------|
 |-----------3-3-3-3------|
  PM*****************

 |-----------------------------------------|
 |-----------------------------------------|
 |-----------6-7-6-6------------7-7/6-6----|
 |-7-7-7-7-7----------7-7-7-7-7------------|
 |-----------------------------------------|
 |-----------------------------------------|
  PM******************************


yaaaaaa!!
ya no estas aqui otra vez
por quien?
no un momento mas y tu ya no estaras
pues dejaste atras lo que me prometiste aller
por que?
si estamanos nosotros si muy bien
para que te vaz dejandome

no te a importado dejarme partido en dos
pues ya no se ni que es lo que quiero no
si estabamos nosotros si muy bien
para que te vas

no tengo porque dejar
estar aqui sin ti


porque fuimos algo que no volvera


CON ESTO SAKAN LO DEMAS POR KE ME DIO WEBA  ESCRIBIR LOS MISMO
DUDAS COMENTARIOS Y MENTADAS DE MADRE A JOS_ROCKR@


SALUDOS A LA RAZA DE LAZAROCK

            
            
Suggest correction
Creating personal tab
Creating personal tab
You can edit any tab online and save it as your Personal.

You can edit, replace or remove any tab part or add personal notes – all changes will be seen only by you.

Personal tabs can be accessed anytime from any device, even offline.
Learn more »
Give kudos to tab author, rate the tab!
1 2 3 4 5
comments
print report bad tab
guest
Wanna post a correction for this tab? Suggest correction