Oops, an error
Loading. Please wait.

Ultralight Beam Chords

178 views 1 this week
no commentswrite comment
1 2 3 4 5
1 last vote to show rating
add to favorites
launch autoscroll
font size
0
reset
transpose
0
reset
display chords
guitar tuner
Autoscroll
slow
fast
+/-
esc
set tempo
stop
Help us to improve Ultimate-Guitar.com Take our survey!
×
Author
Difficulty
novice
[Chords]
Cm

We on an ultra light beam

We on an ultra light beam
          Eb
This is a God dream

This is a God dream
             Ab
This is everything
             G
This is everything



           Cm
Deliver us serenity

Deliver us peace
           Eb
Deliver us loving
                        Ab
We know we need it
            G
You know we need it

You know we need it
          Cm
And I'mma need you now, oh, I
         Eb
Pray for Paris

Pray for the parents
              Ab
This is a God dream

This is a God dream
              G
This is a God dream
Cm
We on an ultra light beam

We on an ultra light beam
          Eb
This is a God dream

This is a God dream
              Ab
This is everything
              G
This is everything


[Refrain]

                  Cm
I'm tryna keep my faith
                    Eb
But I’m looking for more
                     Ab
Somewhere I can feel safe
                G
And end my holy war
                  Cm
I'm tryna keep my faith


[Verse 1]

So why send depression not blessings?
                                Eb
Why, oh why'd you do me wrong? 
Eb
You persecute the weak

Because it makes you feel so strong
 Ab
Don’t have much strength to fight

So I look to the light
 G
To make these wrongs turn right
                           Cm
Head up high, I look to the light
                                               Eb
Hey, cause I know that you'll make everything alright
                                              Ab
And I know that you'll take good care of your child
                   G
Oh, no longer am I afraid of the night
                      Cm
Cause I, I look to the light


[Verse 2]

                                              Eb
When they come for you I will shield your name
                                                   Ab
I will field their questions, I will feel your pain
                 G
No-one can judge
G
They don’t, they don’t know

They don’t know
Cm
Ugh, I’m just having fun with it

You only thought I was lost
Eb
I laugh in my head

Cause I bet that my ex looking back like a pillar of salt
Ab
Ugh, cause they flipped the script on your ass like Wesley and Spike
G
You cannot mess with the light
                           Cm
Look at lil Chano from 79


[Hook]
Cm
We on an ultra light beam

We on an ultra light beam
          Eb
This is a God dream

This is a God dream
             Ab
This is everything
      G
Everything


[Refrain]

                  Cm
I'm tryna keep my faith
                    Eb
But I’m looking for more
                     Ab
Somewhere I can feel safe
                G
And end my holy war


[Solo]

e|---------------------------------------------------------------------------|
B|-13---13--15-16-15-13--13------------------13--15-16-15-13--13-------------|
G|----------------------15-15--12-10-8-----------------------15-15--12-10-8--|
D|---------------------------------------------------------------------------|
A|---------------------------------------------------------------------------|
E|---------------------------------------------------------------------------|

e|-------------------------------------------------------------------------------|
B|---13----------13----------------18/-------------------------------------------|
G|-15--12------15--12-10-12-------------------------------------10--12-10-12-13--|
D|-------------------------------------------10--12-13--15\13--------------------|
A|-------------------------------------------------------------------------------|
E|-------------------------------------------------------------------------------|

e|---------------------------------------------------------------------------|
B|------13-15-17---15--13----------------------------------------------------|
G|-13-15-------------------15------------------------------------------------|
D|---------------------------------------------------------------------------|
A|---------------------------------------------------------------------------|
E|---------------------------------------------------------------------------|

Cm
faith
Eb
more
Ab
safe
G
war



************************************

| /   Slide up
| \   Slide down

************************************
Suggest correction
Give kudos to tab author, rate the tab!
1 2 3 4 5
comments
print report bad tab
guest
You may want to rate the tab now too:
select rating
Wanna post a correction for this tab? Suggest correction