Oops, an error
Loading. Please wait.

Hijo Del Lechero tab

version 2
version 2

Whole song

by Cuca
61 views 1 this week
no commentswrite comment
1 2 3 4 5
3 more votes to show rating
add to favorites
×
Save as Personal and add changes to this tab that will be seen only by you. Learn more ›
×
You can save this tab as Personal to edit and correct it or add notes. All changes will be seen only by you. Learn more »
launch autoscroll
font size
0
reset
how to read this tab
guitar tuner
edit
Autoscroll
slow
fast
+/-
esc
set tempo
stop
INTRO:

IOLE, IOLE, IOLE Í IOLE, IOLE, IO...

E------------------
A------------------
D------------------   X2  (RIFF 1)
G------------------
B--5-5-5-5-5-|-7-5-
e--7-7-7-7-7-|-7-7-

E--0-4-7------------
A--------0-4-7------
D--------------0-4-7  X2  (RIFF 2)
G-------------------
B-------------------
e-------------------

ESTO SE TOCA EN EL VERSO, CUANDO SE TERMINA EL VERSO SE TOCA EL RIFF 2

E---
A--5
D--5  (RIFF 3) ASTA KE SE DESVANECE EL SONIDO
G---
B---
E---

EL CORO:

E-----------
A--0-4------
D------0-4-0    (RIFF 4)
G----------0   
B-----------
e-----------

(RIFF1)
IOLE IOLE IOLE I IOLE IOLE IOLE IO  

RIFF 2
RIFF 1
RIFF 2

RIFF 3
HAY MAMA KE ES LO KE SIENTO KE ES LO KE KOMENTAN KE ES LO KE PRESIENTO?
RIFF 2
FIFF 3
HAY MAMA KE ES...

RIFF 4
HIJO DEL LECHERO
RIFF 4
HIJO DEL LECHERO
RIFF 4
HIJO DEL LECHERO

EL SOLO..

E--------------------------------------------------------------------------
A--------------------------------------------------------------------------
D--------------------------------------------------------------------------
G--------------------------------------------------------------------------
B--------------------------------------------------------------------------
e-5-8-7-5-5-8-7-5-5-8-7-5-5-8-7-5-5-8-7-5-5-8-7-5-5-8-7-5-5-8-7-5-5-5-7-7-8


NECESITAS ESCUCHAR LA ROLA PARA KE TOMES EL RITMO 

EL_GARIGOL_NO_HA_MUERTO@

            
            
Suggest correction
Creating personal tab
Creating personal tab
You can edit any tab online and save it as your Personal.

You can edit, replace or remove any tab part or add personal notes – all changes will be seen only by you.

Personal tabs can be accessed anytime from any device, even offline.
Learn more »
Give kudos to tab author, rate the tab!
1 2 3 4 5
comments
print report bad tab
guest
Wanna post a correction for this tab? Suggest correction