Oops, an error
Loading. Please wait.

Todo Con Exceso bass

version 2
version 2

Whole song

by Cuca
119 views 1 this week
no commentswrite comment
1 2 3 4 5
3 more votes to show rating
add to favorites
×
Save as Personal and add changes to this tab that will be seen only by you. Learn more ›
×
You can save this tab as Personal to edit and correct it or add notes. All changes will be seen only by you. Learn more »
launch autoscroll
font size
0
reset
guitar tuner
edit
Autoscroll
slow
fast
+/-
esc
set tempo
stop
Pues aquí les dejo un tab de la QK de parte de Viejo Veneno
espero les guste!
con cariño para mi amor que me trae todo mal
TODO CON EXCESO NADA CON MEDIDA!


 M: Muteado (PM)
 H: Armónico

 Intro x4

    M                              M
g|------------------------------|----------------------|
D|--------------4---x-x--6--7/6-|--------------4--6--7-|
A|--4--6--x-x---2---x-x--4--5/4-|--4--6--x-x---2--4--5-|
E|--2--4--x-x-------------------|--2--4--x-x-----------|


VERSO  x4

g|--------------|
D|--------------|
A|---6----------|
E|---4----------|


    M                              M
g|------------------------------|----------------------|
D|--------------4---x-x--6--7/6-|--------------4--6--7-|
A|--4--6--x-x---2---x-x--4--5/4-|--4--6--x-x---2--4--5-|
E|--2--4--x-x-------------------|--2--4--x-x-----------|


CORO

g|------------------|----------------|---9H-----|-----------------------|
D|------------(99)--|--9-------------|----------|--------------4--6--7--|
A|--2---------(77)--|--7-------------|----------|--4--6--x-x---2--4--5--|
E|--0---------------|--0-------------|----------|--2--4--x-x------------|

g|------------------|------------------|---9H-----|
D|------------(99)--|--9---------------|----------|
A|--2---------(77)--|--7---------------|----------|
E|--0---------------|--0---------------|----------|


     M                              M
g|-------------------------------|----------------------|
D|---------------4---x-x--6--7/6-|--------------4--6--7-| x2
A|---4--6--x-x---2---x-x--4--5/4-|--4--6--x-x---2--4--5-|
E|---2--4--x-x-------------------|--2--4--x-x-----------|


VERSO x4

g|------------|
D|------------|
A|---6--------|
E|---4--------|


     M                             M
g|------------------------------|----------------------|
D|--------------4---x-x--6--7/6-|--------------4--6--7-|
A|--4--6--x-x---2---x-x--4--5/4-|--4--6--x-x---2--4--5-|
E|--2--4--x-x-------------------|--2--4--x-x-----------|


CORO

g|------------------|---------------|---9H-----|-----------------------|
D|------------(99)--|--9------------|----------|--------------4--6--7--|
A|--2---------(77)--|--7------------|----------|--4--6--x-x---2--4--5--|
E|--0---------------|--0------------|----------|--2--4--x-x------------|

g|------------------|---------------|---9H-----|
D|------------(99)--|--9------------|----------|
A|--2---------(77)--|--7------------|----------|
E|--0---------------|--0------------|----------|


     M                                       M
g|-------------------------------|----------------------|
D|---------------4---x-x--6--7/6-|--------------4--6--7-| x2
A|---4--6--x-x---2---x-x--4--5/4-|--4--6--x-x---2--4--5-|
E|---2--4--x-x-------------------|--2--4--x-x-----------|


SOLO


g|----------|--------------|
D|--6-------|----2---2--4--| x2
A|--4-------|--4---4-------|
E|----------|--------------|

    M                              M
g|------------------------------|----------------------|
D|--------------4---x-x--6--7/6-|--------------4--6--7-|   x2
A|--4--6--x-x---2---x-x--4--5/4-|--4--6--x-x---2--4--5-|
E|--2--4--x-x-------------------|--2--4--x-x-----------|

g|----------|--------------|
D|--6-------|----2---2--4--| x2
A|--4-------|--4---4-------|
E|----------|--------------|


N. número de veces...  (FLANS)

    M                              M
g|------------------------------|----------------------|
D|--------------4---x-x--6--7/6-|--------------4--6--7-|
A|--4--6--x-x---2---x-x--4--5/4-|--4--6--x-x---2--4--5-|
E|--2--4--x-x-------------------|--2--4--x-x-----------|


después sigue el coro y regresa al ritmo base
e igual N número de veces hasta que termine

es toda la canción califiquen y que viva QK!

            
            
Suggest correction
Creating personal tab
Creating personal tab
You can edit any tab online and save it as your Personal.

You can edit, replace or remove any tab part or add personal notes – all changes will be seen only by you.

Personal tabs can be accessed anytime from any device, even offline.
Learn more »
Give kudos to tab author, rate the tab!
1 2 3 4 5
comments
print report bad tab
guest
Wanna post a correction for this tab? Suggest correction