Oops, an error
Loading. Please wait.

Zamba Del Carnaval tab

221 views 3 this week
no commentswrite comment
1 2 3 4 5
3 more votes to show rating
add to favorites
×
Save as Personal and add changes to this tab that will be seen only by you. Learn more ›
×
You can save this tab as Personal to edit and correct it or add notes. All changes will be seen only by you. Learn more »
launch autoscroll
font size
0
reset
how to read this tab
guitar tuner
edit
Autoscroll
slow
fast
+/-
esc
set tempo
stop
 EN 3/4                                RASGUEADO

    Q.     E  Q       Q    H           Q.     E  Q       E  E  E  E  E  E
E||-----------------|----------------|-----------------|--------------------|
B||--6------6-------|--5----3--------|-----------------|--1-----------------|
G||--7------7-------|--5----3--------|--2------2-------|--2--------------4--|
D||-----------------|----------------|--3------3-------|--3-----------5-----|
A||--5---------3----|-------1--------|--3------3-------|-----------5--------|
E||-----------------|----------------|--1---------1----|--------3-----------|

RASGUEADO                             4/4                 3/4
  Q.     E  Q       E  E  E  E  E  E     H        H           Q.     E  Q
-----------------|--------------------|--------------------|-----------------|
-----------------|--1--------------2--|--------------------|---------6-------|
--2------2-------|--2-----------0-----|--------------------|---------7-------|
--3------3-------|--3--------2--------|--------------------|---------7-------|
--3------3-------|--------0-----------|--2--------4--------|--5---------5----|
--1---------1----|--------------------|--------------------|-----------------|


  Q    H
----------------||
--6-------------||
--7-------------||
--7-------------||
-------5--------||
----------------|| X2


Duration Legend
---------------
W - redonda
H - blanca
Q - negra
E - corchea
S - 16th
T - 32nd
X - 64th
. - note dotted
|-n-|  - n-tuplets


 D9               Gm
 vengo desde el olvido
 C       C7 F    A7
 toro serrano
 Dm         Dm/C E7
 por ver si mato penas
 Gm     A7   Dm
 carnavaleando
 Dm         Dm/C E7
 por ver si mato penas
 Gm Bb  A7   Dm
 carnavaleando

 me anda faltando plata
 chicha y coraje
 y un empujon del diablo
 pa'namorarte
 y un empujon del diablo
 pa'namorarte

 F          G   F
 carnavales carperos
 G               Bb        C7         F
 la copla y la albhaca llorando en el vino
 F           G   F     G           F           A7    Dm
 los caballos atados, vuelven a la luna al galope tendido
 F           G   F     G           F           A7    Dm
 los caballos atados, vuelven a la luna al galope tendido


*se repite la intro.


 Vailaremos la zamba
 los dos solitos
 para trampearte el alma
 con mi gualicho
para trampearte el alma
 con mi gualicho

 un pañuelito blanco
 busca consuelo
 mi corazon lo sigue
 de vuelo en vuelo
mi corazon lo sigue
 de vuelo en vuelo.

            
            
Suggest correction
Creating personal tab
Creating personal tab
You can edit any tab online and save it as your Personal.

You can edit, replace or remove any tab part or add personal notes – all changes will be seen only by you.

Personal tabs can be accessed anytime from any device, even offline.
Learn more »
Give kudos to tab author, rate the tab!
1 2 3 4 5
comments
print report bad tab
guest
Wanna post a correction for this tab? Suggest correction