Oops, an error
Loading. Please wait.

Colgado tab

788 views 3 this week
no commentswrite comment
1 2 3 4 5
3 more votes to show rating
add to favorites
×
Save as Personal and add changes to this tab that will be seen only by you. Learn more ›
×
You can save this tab as Personal to edit and correct it or add notes. All changes will be seen only by you. Learn more »
launch autoscroll
font size
0
reset
how to read this tab
guitar tuner
edit
Autoscroll
slow
fast
+/-
esc
set tempo
stop
*En toda la canción usa E5 y A5.

                         E5                      A5
E) |---------------------x-x---------------------x-x
B) |---------------------x-x---------------------x-x
G) |---------------------x-x---------------------x-x   [X2]
D) |---------------------2-2---------------------7-7
A) |---------------------2-2---------------------7-7
E) |--0-3-5-7-5-3-5-3-0--0-0--0-3-5-7-5-3-5-3-0--5-5


                             E5
Estoy soñando y no se con que
                                 A5
estoy durmiendo y no se con quien
                               E5
estoy viviendo en un gran hotel
                            A5
estoy colgado sobre la pared

                         E5                      A5
E) |---------------------x-x---------------------x-x
B) |---------------------x-x---------------------x-x
G) |---------------------x-x---------------------x-x   [X2]
D) |---------------------2-2---------------------7-7
A) |---------------------2-2---------------------7-7
E) |--0-3-5-7-5-3-5-3-0--0-0--0-3-5-7-5-3-5-3-0--5-5

Estoy soñando y no se con quien
Estoy soñando y no se con que
estoy viviendo en un gran hotel
estoy colgado sobre la pared
estoy bailando y no se bailar
estoy viviendo y lo mismo da
estoy pensando en secar el mar
y todo el mundo me hace un altar

                         E5                      A5
E) |---------------------x-x---------------------x-x
B) |---------------------x-x---------------------x-x
G) |---------------------x-x---------------------x-x   [X2]
D) |---------------------2-2---------------------7-7
A) |---------------------2-2---------------------7-7
E) |--0-3-5-7-5-3-5-3-0--0-0--0-3-5-7-5-3-5-3-0--5-5

                   E5                A5
E) |---------------x-x---------------x-x
B) |---------------x-x---------------x-x
G) |--10-12-10-12--x-x--10-12-10-12--x-x   [X2]
D) |---------------2-2---------------7-7
A) |---------------2-2---------------7-7
E) |---------------0-0---------------5-5

                   E5                      A5
E) |---------------x-x---------------------x-x
B) |---------------x-x---------------------x-x
G) |---------------x-x---------------------x-x
D) |---------------2-2---------------------7-7
A) |---------------2-2---------------------7-7
E) |--0-3-0-3-0-3--0-0--0-3-5-7-5-3-5-3-0--5-5

                         E5                      A5
E) |---------------------x-x---------------------x-x
B) |---------------------x-x---------------------x-x
G) |---------------------x-x---------------------x-x   [X2]
D) |---------------------2-2---------------------7-7
A) |---------------------2-2---------------------7-7
E) |--0-3-5-7-5-3-5-3-0--0-0--0-3-5-7-5-3-5-3-0--5-5

Estoy soñando y no se con que
estoy durmiendo y no se con quien
estoy viviendo en un gran hotel
estoy colgado sobre la pared

                         E5                      A5
E) |---------------------x-x---------------------x-x
B) |---------------------x-x---------------------x-x
G) |---------------------x-x---------------------x-x   [X2]
D) |---------------------2-2---------------------7-7
A) |---------------------2-2---------------------7-7
E) |--0-3-5-7-5-3-5-3-0--0-0--0-3-5-7-5-3-5-3-0--5-5

estoy bailando y no se bailar
estoy viviendo y lo mismo da
estoy pensando en secar el mar
y todo el mundo me hace un altar

(El solo del final lo pondré luego, disculpen por dejarla incompleta)

            
            
Suggest correction
Creating personal tab
Creating personal tab
You can edit any tab online and save it as your Personal.

You can edit, replace or remove any tab part or add personal notes – all changes will be seen only by you.

Personal tabs can be accessed anytime from any device, even offline.
Learn more »
Give kudos to tab author, rate the tab!
1 2 3 4 5
comments
print report bad tab
guest
Wanna post a correction for this tab? Suggest correction