Oops, an error
Loading. Please wait.

La Maquina chords

154 views 1 this week
no commentswrite comment
1 2 3 4 5
3 more votes to show rating
add to favorites
×
Save as Personal and add changes to this tab that will be seen only by you. Learn more ›
×
You can save this tab as Personal to edit and correct it or add notes. All changes will be seen only by you. Learn more »
launch autoscroll
font size
0
reset
transpose
0
reset
simplify chords
display chords
guitar tuner
edit
Autoscroll
slow
fast
+/-
esc
set tempo
stop
Strumming
There is no strumming pattern for this song yet. and get +5 IQ
Esta canción es recontra chere asi q disfrutenla, un saludo
para toda la gent q scucha el rock/punk peruano.
Saludos tb para la gent de huánuco:
 Giovanni, polaco, renato , etc
INTRO:
     esta parte se jalan las cuerdas para avajo y una para arriba
e----------------------/-------------/
b---------------------/--------------/
g----------------4-4-4-4-4----------/
d---4-4-4-4-4-0--4-4-4-4-4----------/
a---4-4-4-2-4-0--2-2-0-2-0----------/
E---2-2-0-2-2-0---------------------/ esto es por 4 veces


   F#5           F#5
yo soy la maquina q te da de comer
F#5           F#5
 q te viste q te peine q te hace sentir bien
F#5           F#5
yo yo yo yo soy el monstro q te lleva a trabajar
        F#5           F#5
q te engrie q te engorda q te hace vomitar
    G#5                  G5
y ahora tu q vas a hacer, acaso vas a responder?..
 F#5          F#5
yo soy la musica q tienes q escuchar q consumes y
    F#5           F#5
 fabricas desde abajo y para atras?

 F#5           F#5
yo yo yo yo soy el dial q tu tienes q llenar la barriga
 F#5           F#5
 q te ajusta y q te hace sospechar
  G#5                    G5
y ahora tu q vas a hacer, acaso vas a responder?

(lo mismo de arriba)


yo soy la maquina q te da de comer
q te viste q te peine q te hace sentir bien
yo yo yo yo soy el monstro q te lleva a trabajar
q te engrie q te engorda q te hace vomitar
y ahora tu q vas a hacer, acaso vas a responder

solo:
e----9-11-11-9-11-9-9-11-12-11-12-11-9--------------- (x2)
b-----------------------------------------------------
g-------------------------------------------------------
d------------------------------------------------------
a-----------------------------------------------------
E------------------------------------------------------

            
            
Suggest correction
Creating personal tab
Creating personal tab
You can edit any tab online and save it as your Personal.

You can edit, replace or remove any tab part or add personal notes – all changes will be seen only by you.

Personal tabs can be accessed anytime from any device, even offline.
Learn more »
Give kudos to tab author, rate the tab!
1 2 3 4 5
comments
print report bad tab
guest
Wanna post a correction for this tab? Suggest correction