Oops, an error
Loading. Please wait.

Grasa tab

51 views 1 this week
no commentswrite comment
1 2 3 4 5
3 more votes to show rating
add to favorites
×
Save as Personal and add changes to this tab that will be seen only by you. Learn more ›
×
You can save this tab as Personal to edit and correct it or add notes. All changes will be seen only by you. Learn more »
launch autoscroll
font size
0
reset
how to read this tab
guitar tuner
edit
Autoscroll
slow
fast
+/-
esc
set tempo
stop
 Intro
   D   D#/D      D  D#/D       F    F#/F       F     F#/F
1-------------------------------------------------------------
2-------------------------------------------------------------
3--7--7-8-7-7---7--7-8-7-7---10-10--11-10-10---10-10--11-10-10
4--7--7-8-7-7---7--7-8-7-7---10-10--11-10-10---10-10--11-10-10
5--5--5-6-5-5---5--5-6-5-5---8--8---9--8--8----8--8---9--8--8-
6-------------------------------------------------------------

verso

   D~                          F    F#/F       F     F#/F
1-------------------------------------------------------------
2-------------------------------------------------------------
3----------------------------10-10--11-10-10---10-10--11-10-10
4----------------------------10-10--11-10-10---10-10--11-10-10
5--5~------------------------8--8---9--8--8----8--8---9--8--8-
6-------------------------------------------------------------


coro

    E    D#   C#    B     A   B   C# B
1--------------------------------------
2--------------------------------------
3--9999-8888-6666-4444------------66---
4--9999-8888-6666-4444--7777-9999-66-99
5--7777-6666-4444-2222--7777-9999-44-99
6-----------------------5555-7777----77


D                                  F F#/F  F F#/F
No me hace falta que me demuestres nada,
D                                  F F#/F  F F#/F
ni tenes que hablarme cortesmente,
D                                  F F#/F  F F#/F
si yo se, tenes la peor conmigo,
D                                  F F#/F  F F#/F
tu sonrisa falsa no me engaña.

E  D#  C#  B  A   B      C# B
Sinceramente sos poco sensato
E  D#  C#  B  A   B      C# B
sinceramente sos poco sensato!

D                                  F F#/F  F F#/F
La amistad es conveniencia para vos?
D                                  F F#/F  F F#/F
No hay remedio ya lo se,
D                                  F F#/F  F F#/F
a esta altura no creo que cambies.
D                                  F F#/F  F F#/F
Me parece que tenes que replantearte muchas cosas,


eso, lindo tema de cucsi  :D
ctavall@ ahi cualqier cosa
  saludos para estoesto 
Suggest correction
Creating personal tab
Creating personal tab
You can edit any tab online and save it as your Personal.

You can edit, replace or remove any tab part or add personal notes – all changes will be seen only by you.

Personal tabs can be accessed anytime from any device, even offline.
Learn more »
Give kudos to tab author, rate the tab!
1 2 3 4 5
comments
print report bad tab
guest
Wanna post a correction for this tab? Suggest correction