Oops, an error
Loading. Please wait.

Vida Sem Cida chords

10 views 1 this week
no commentswrite comment
1 2 3 4 5
3 more votes to show rating
add to favorites
×
Save as Personal and add changes to this tab that will be seen only by you. Learn more ›
×
You can save this tab as Personal to edit and correct it or add notes. All changes will be seen only by you. Learn more »
launch autoscroll
font size
0
reset
transpose
0
reset
simplify chords
display chords
guitar tuner
edit
Autoscroll
slow
fast
+/-
esc
set tempo
stop
Strumming
There is no strumming pattern for this song yet. and get +5 IQ
Tabbed by: Fabio BlenderBR


[Intro]

B5  G#5  F#5  E


E|-4/7-7-6-7---(3x)|----------------|
B|-----------------|----------------|
G|-----------------|----4/7-7-6-7---|
D|-----------------|----------------|
A|-----------------|----------------|
E|-----------------|----------------|


[Verse 1]

B5
Porque decidiu partir,
                 G#5
O que vou fazer agora,
                 F#5
E o vazio que senti,
      E                         F#5
Ao te ver com suas malas indo embora,
                B5
Pra bem longe daqui. Me perdoe por favor,
                    G#5
Mas não tenho uma opção,
                  F#5
Minha filha me deixou,
        E                    F#5                     B5
E minha mãe esta doente precisando de um pouco de atenção,


[Chorus]

B5        F#5       G#5
 Eu fiz de tudo pra fazer você ficar,
B5      F#5            G#5
 tentei achar alguém que possa me ajudar,
B5       F#5         G#5
 E quando eu mais precisava de você,
B5     F#5        G#5
 você resolve me deixar,
         E5                         B5
Agora eu sei que nada esta em seu lugar,
         F#5                    G#5          E5                      B5
Eu mesmo mudo e não consigo encontrar um jeito fácil pra tentar sobreviver
                   F#5
Levar a vida sem você.


[Verse 2]

B5                                       G#5
 Mas tudo vai se acertar, e ninguém vai notar,
                    F#5       E
Eu parti pra não voltar, e sua roupa,
                   F#5                      B5
Outra mulher irá lavar, passar, dobrar e cozinhar


[Chorus]

B5        F#5       G#5
 Eu fiz de tudo pra fazer você ficar,
B5      F#5            G#5
 tentei achar alguém que possa me ajudar,
B5       F#5         G#5
 E quando eu mais precisava de você,
B5     F#5        G#5
 você resolve me deixar,
         E5                         B5
Agora eu sei que nada esta em seu lugar,
         F#5                    G#5          E5                      B5
Eu mesmo mudo e não consigo encontrar um jeito fácil pra tentar sobreviver
                   F#5
Levar a vida sem você.


[Solo]

G#5  F#5  E

E|---------------------------------------------|
B|---------------------------------------------|
G|-6-6-7-7-6-7-4-6-7-7-6-7-4-6-7-7-6-7-4-6-7~~-|
D|---------------------------------------------|
A|---------------------------------------------|
E|---------------------------------------------|


E|-----------------------------------------------------------------|
B|-----------------------------------------------------------------|
G|-4/6-6-7-7-6-7-4-6-7-7-6-7-4-4-4-4/6~~/4-4/6-6/7-7/4-4/6-6/7-7/4-|
D|-----------------------------------------------------------------|
A|-----------------------------------------------------------------|
E|-----------------------------------------------------------------|


[Bridge]

E                  F#5                           B5
Hoje precisei de você, não tinha ninguém no seu lugar,
          E                    G#5               F#5
E nunca terá te imploro pra voltar e posso até pensar no,
                 B5               E                     G#5
Seu salário aumentar tanta coisa sumiu será que você não viu,
            F#5                 B5
Aonde eu larguei, o controle da TV.


[Outro]

B5  F#5  G#5  E     3x


E|------------------------------------------------------------------------|
B|------------------------------------------------------------------------|
G|-9-9-13-14-13-11-13-11-11-13-14-13-11-13-9-9-8-9-9-8-9-8-11-8-9-8-11-8--|
D|------------------------------------------------------------------------|
A|------------------------------------------------------------------------|
E|------------------------------------------------------------------------|

            
            
Suggest correction
Creating personal tab
Creating personal tab
You can edit any tab online and save it as your Personal.

You can edit, replace or remove any tab part or add personal notes – all changes will be seen only by you.

Personal tabs can be accessed anytime from any device, even offline.
Learn more »
Give kudos to tab author, rate the tab!
1 2 3 4 5
comments
print report bad tab
guest
You may want to rate the tab now too:
select rating
Wanna post a correction for this tab? Suggest correction