Oops, an error
Loading. Please wait.

Eternidad bass

version 1
version 1

Whole song

19 views 1 this week
no commentswrite comment
1 2 3 4 5
3 more votes to show rating
add to favorites
×
Save as Personal and add changes to this tab that will be seen only by you. Learn more ›
×
You can save this tab as Personal to edit and correct it or add notes. All changes will be seen only by you. Learn more »
launch autoscroll
font size
0
reset
guitar tuner
edit
Autoscroll
slow
fast
+/-
esc
set tempo
stop
INTRO: (el numero que esta entre parentesis indica cuantas veces
        se toca la misma nota)

G|------------------
D|------------------
A|-7(12)------------
E|--------9(4)------ 4 veces...

Despues empieza la bateria:
Versos: Como la intro:
G|------------------
D|------------------
A|-7(12)------------
E|--------9(4)------ 2 de estos en cada linea. (Escuchen el tema
                                                se daran cuenta)
   Volverán
   cada instante, cada lugar
G|------------------------------------------------------
D|------------------------------------------------------
A|-0(+de12)---------------------7(12)-------------------
E|-----------------------------------------------9(4)---
   cada ciudad y su nombre cada sombra, cada luz
G|-------------------------------------------
D|-------------------------------------------
A|-0(+12)------------------------2(+12)--
E|-------------------------------------------
   y cada secreto escondido encontrarás.
G|----------------------------------------------------------
D|----------------------------------------------------------
A|-2/7(+12)----------------2(+12)----0(+12)-------0h2(+12)--
E|----------------------------------------------------------
     Somos la ausente... y como un... Somos un... somos sueños.

NOTA: donde dice "(+12)", se tocan mas de doce veces la misma
      nota, yo  no lo pon al numero porque se toca tan rapido
      que no me doy cuenta de cuantas veces son... :D

G|------------------
D|------------------
A|-7(12)------------
E|--------9(4)------ 2 veces...
Versos:
G|------------------
D|------------------
A|-7(12)------------
E|--------9(4)------ 2 de estos en cada linea.
   Volverán
   mis fantasmas y mi ilusión
G|------------------------------------------------------
D|------------------------------------------------------
A|-0(+de12)-------------------------7(12)---------------
E|-----------------------------------------------9(4)---
   cuentos que un ciego poeta regaló a tu corazón
G|-------------------------------------------
D|-------------------------------------------
A|-0(+12)--------------------------2-22-222--
E|-------------------------------------------
   la sensación de que todo volverá

G|----------------------------------------------------------
D|----------------------------------------------------------
A|--7(+12)----------------2(+12)----0(+12)-------0h2(+12)---
E|----------------------------------------------------------
    Somos la ausente... y como un... Somos un... somos sueños.

G|---------------------------------------------
D|---------------------------------------------
A|--7(+12)-------------------2(+12)------------
E|---------------------------------------------
    Somos instanstes... y cada grano de dolor...

G|----------------------------------------------
D|----------------------------------------------
A|--0(+12)-----------------------0h2(+12)-----7-
E|----------------------------------------------
    Somos la vida que se asooooma... otra veeez...

Silencio...

G|------------------
D|------------------
A|-7(12)------------
E|--------9(4)------ 4 veces...

Volverán, volverán 4 en cada linea de la figura de arriba
Volverán, volverán
Volverán, volverán

G|----------------------------------------------------------
D|----------------------------------------------------------
A|-2/7(+12)----------------2(+12)----0(+12)-------0h2(+12)--
E|----------------------------------------------------------
     Somos la ausente... y como un... Somos un... somos sueños

G|---------------------------------------------
D|---------------------------------------------
A|--7(+12)-------------------2(+12)------------
E|---------------------------------------------
    Somos instanstes... y cada grano de dolor...

G|----------------------------------------------
D|----------------------------------------------
A|--0(+12)-----------------------0h2(+12)-----7-
E|----------------------------------------------
    Somos la vida que se asooooma... otra veeez...

Bueno, es todo... Cualquier error a mi mail... :D
Suggest correction
Creating personal tab
Creating personal tab
You can edit any tab online and save it as your Personal.

You can edit, replace or remove any tab part or add personal notes – all changes will be seen only by you.

Personal tabs can be accessed anytime from any device, even offline.
Learn more »
Give kudos to tab author, rate the tab!
1 2 3 4 5
comments
print report bad tab
guest
Wanna post a correction for this tab? Suggest correction