Oops, an error
Loading. Please wait.

Schumann tab

17 views 3 this week
no commentswrite comment
1 2 3 4 5
3 more votes to show rating
add to favorites
×
Save as Personal and add changes to this tab that will be seen only by you. Learn more ›
×
You can save this tab as Personal to edit and correct it or add notes. All changes will be seen only by you. Learn more »
launch autoscroll
font size
0
reset
how to read this tab
guitar tuner
edit
Autoscroll
slow
fast
+/-
esc
set tempo
stop
A : 577xxx         
C : x355xx

Intro:

 E  ---------------------|-------------------------
 B  ---------------------|-------------------------
 G  -----------10--9-7-9-|-------------9p10--9p10--  x  8
 D  --7-7-7-7------------|---7-7-7-7---------------
 A  ---------------------|-------------------------
 E  ---------------------|-------------------------

 E  ---------------------
 B  ---------------------
 G  -----------10--9-7-9-
 D  --7-7-7-7------------  X  2
 A  ---------------------
 E  ---------------------


Riff 1

 E  ---------------------
 B  ---------------------
 G  ---------------------
 D  ---------------------
 A  --0-0--3-0-3-0-2-3---
 E  ---------------------

Riff 2
 E  ---------------------
 B  ---------------------
 G  ---------------------
 D  ---------------------
 A  --0-0--3-0-3-0-------
 E  ---------------------

Riff 3
 E  ---------------------
 B  ---------------------
 G  -2/5--5-5---7-7-7----
 D  -2/5--5-5---7-7-7----
 A  ---------------------
 E  ---------------------

Riff 4
 E  ---------------------
 B  ---------------------
 G  -7/9--9-9---11-11-11-
 D  -7/9--9-9---11-11-11-
 A  ---------------------
 E  ---------------------

Riff 5 Arpegiando Am

 E  ---------------|---------------0-
 B  -----1------1--|------3--------3-
 G  -------2-------|---------2-------
 D  ---------2-----|-----------2-----
 A  --0------------|--0-0------------
 E  ---------------|-----------------


((Solo Guitarra)) INTRO


Ya no me deja respirar
es este cuerpo o esta voz?
algo me dice que no hay tiempo

((Entra el bajo))
Inagotable corazón
la música es nocturna
pero la sangre se disuelve

Riff 1   x4

OHHHHHHH!!!
                        C
cuanto tiempo hay que esperar solo?

Riff 3   x4

Estribillo:
A                 C
vengar mi suerte ahora
A                 C
sombra inquieta me ahoga.

Riff 1 (las primeras dos vueltas con palm mute)
despues 4 vueltas mas comunes!

Riff 2
Tras la desdicha de intentar
y no poder lograrlo
Se van perdiendo las razones

Apártense los idiotas
fuera los místicos de hiel
la vida es un engaño!

Riff 1  x4
OHHHHH!
                        C
cuanto tiempo hay que esperar solo!

Riff 3  x4
Riff 4  x 4

A                 C
vengar mi suerte ahora
A                 C
sombra inquieta me ahoga.

Riff 5  x 8

Riff 3 x4


Espero Que sirva!! Muy bueno cuentos!!
Aguante Catupecu!! por cuaquier cosa mi mail
nikito89@ =))

            
            
Suggest correction
Creating personal tab
Creating personal tab
You can edit any tab online and save it as your Personal.

You can edit, replace or remove any tab part or add personal notes – all changes will be seen only by you.

Personal tabs can be accessed anytime from any device, even offline.
Learn more »
Give kudos to tab author, rate the tab!
1 2 3 4 5
comments
print report bad tab
guest
Wanna post a correction for this tab? Suggest correction