Oops, an error
Loading. Please wait.

Sortilegio chords

26 views 1 this week
no commentswrite comment
1 2 3 4 5
3 more votes to show rating
add to favorites
×
Save as Personal and add changes to this tab that will be seen only by you. Learn more ›
×
You can save this tab as Personal to edit and correct it or add notes. All changes will be seen only by you. Learn more »
launch autoscroll
font size
0
reset
transpose
0
reset
simplify chords
display chords
guitar tuner
edit
Autoscroll
slow
fast
+/-
esc
set tempo
stop
Strumming
There is no strumming pattern for this song yet. and get +5 IQ
INTRO

e----------------------------------
B----------------------------------
G--------------------------2-------
D------2-2---4-2-------2-2---4-2---    X4
A--2-4-----4-------2-4-------------
E----------------------------------


C#5               D5  C#5
Un hombre quiere una mujer
           D5           E5           D5
y una mujer quiere ser un señor, un gran señor
C#5                D5    C#5
El pobre quiere que comer
                      D5         E5
y el hombre rico quiere absolución
            D5             E5
que distinción, la humanidad es un circo...


Estribillo

B algo quisieras,
si algo tuvieras,
puede ser que te conformes,
mil emociones o mil canciones
una verdad, un sortilegio...

e----------------------------------------------------------
B----------------------------------------------------------
G----------------------------2-----------------------------
D------2-2---4-2-------2-2-----4-2-------2-2---2-4---------   x2
A--2-4-----4-------2-4-----4---------2-4-----4-----5-4-2---
E----------------------------------------------------------


C#5              D5    C#5
Un mono quiere dominar
                   D5             E5
invade en nombre de la paz mundial
             D5
se siente dueño,
C#5                  D5  C#5
Yo que me doy a los demás
                      D5       E5
te digo podes llevarte mi hogar
               D5
pero no mis sueños...


ESTRIBILLO

B algo quisieras,
si algo tuvieras,
puede ser que te conformes.
Mil emociones o mil canciones
una verdad, un sueño..
B algo quisieras,
si algo tuvieras,
puede ser que te conformes.
Mil emociones o mil canciones
una verdad, un sueño..

            
            
Suggest correction
Creating personal tab
Creating personal tab
You can edit any tab online and save it as your Personal.

You can edit, replace or remove any tab part or add personal notes – all changes will be seen only by you.

Personal tabs can be accessed anytime from any device, even offline.
Learn more »
Give kudos to tab author, rate the tab!
1 2 3 4 5
comments
print report bad tab
guest
Wanna post a correction for this tab? Suggest correction