Oops, an error
Loading. Please wait.

La Bella Caliente Tab

939 views 1 this week
no commentswrite comment
1 2 3 4 5
please rate
add to favorites
launch autoscroll
font size
0
reset
how to read this tab
guitar tuner
Autoscroll
slow
fast
+/-
esc
set tempo
stop
Help us to improve Ultimate-Guitar.com Take our survey!
×
Author
Difficulty
Tuning
novice
C# G# C# F# A# D#
Band:  Cuentos de los Hermanos Grind
Album: Los Cantipuercos
Song:  La Bella Caliente

Copyright (c)  

Transcribed By: Ismael Granados
Email:          ismaelbuild88@hotmail.com


.  - palm mute           /  - slide up to
\  - slide down to       ~  - vibrato
h  - hammer on           b  - Bend
p  - pull off            Suffixes for bend
t  - tap                 f  - full bend    h - half bend
ph - pinched harmonic    q  - quarter bend t - tap bend
*  - see comment         ^  - Hold bend    r release bend
x  - Stuccatto           ~  - vibrato bend
,  - slight palm mute    () - ghost note, sustained note
"  - tremolo note        <> - Trill

Tuned: C# F# B E G# C# 



|-------------------------------------------------------------------|
|-------------------------------------------------------------------|
|-------------------------------------------------------------------|
|-------------------------------------------------------------------|X6
|-------------------------------------------------------------------|
|---0--3-3333-0--2-2222-0--3-3333-0-2320----------------------------|

|-------------------------------------------------------------------|
|-------------------------------------------------------------------|
|-------------------------------------------------------------------|
|-------------------------------------------------------------------|X1
|---3-3-3-3-1-1-1-1-6-6-6-6-5-5-5-5---------------------------------|
|---1-1-1-1-0-0-0-0-4-4-4-4-3-3-3-3---------------------------------|
    . . . . . . . . . . . . . . . .


|-------------------------------------------------------------------|
|-------------------------------------------------------------------|
|-------------------------------------------------------------------|
|-------------------------------------------------------------------|X6
|-------------------------------------------------------------------|
|---0--3-3333-0--2-2222-0--3-3333-0-2320----------------------------|

|-------------------------------------------------------------------|
|-------------------------------------------------------------------|
|-------------------------------------------------------------------|
|-------------------------------------------------------------------|X4
|---3-3---1-1---6-6---5-5-------------------------------------------|
|---1-1-0-0-0-0-4-4-0-3-3-0-----------------------------------------|


|-------------------------------------------------------------------|
|-------------------------------------------------------------------|
|-------------------------------------------------------------------|
|-------------------------------------------------------------------|X4
|---1-111131-111131-11113135----------------------------------------|
|---0-000010-000010-00001013----------------------------------------|
      ....   ....   .... 


|-------------------------------------------------------------------|
|-------------------------------------------------------------------|
|-------------------------------------------------------------------|
|-------------------------------------------------------------------|X2
|---000000111000000333000000111000111333----------------------------|
|-------------------------------------------------------------------|

|-------------------------------------------------------------------|
|-------------------------------------------------------------------|
|-------------------------------------------------------------------|
|-------------------------------------------------------------------|X2
|---1-111131-111131-11113135----------------------------------------|
|---0-000010-000010-00001013----------------------------------------|
      ....   ....   .... 


|-------------------------------------------------------------------|
|-------------------------------------------------------------------|
|-------------------------------------------------------------------|
|-------------------------------------------------------------------|X2
|---000000111000000333000000111000111333----------------------------|
|-------------------------------------------------------------------|


|-------------------------------------------------------------------|
|-------------------------------------------------------------------|
|-------------------------------------------------------------------|
|-------------------------------------------------------------------|X6
|-------------------------------------------------------------------|
|---0--3-3333-0--2-2222-0--3-3333-0-2320----------------------------|

|-------------------------------------------------------------------|
|-------------------------------------------------------------------|
|-------------------------------------------------------------------|
|-------------------------------------------------------------------|X2
|---3-3-3-3-1-1-1-1-6-6-6-6-5-5-5-5---------------------------------|
|---1-1-1-1-0-0-0-0-4-4-4-4-3-3-3-3---------------------------------|
    . . . . . . . . . . . . . . . .

|-------------------------------------------------------------------|
|-------------------------------------------------------------------|
|-------------------------------------------------------------------|
|-------------------------------------------------------------------|X2
|-------------------------------------------------------------------|
|---1-11111-0-00000-0-44444-0-2320----------------------------------|

|-------------------------------------------------------------------|
|-------------------------------------------------------------------|
|-------------------------------------------------------------------|
|-------------------------------------------------------------------|X2
|---3-3-3-3-3-3-3-3-------------------------------------------------|
|---1-1-1-1-1-1-1-1-------------------------------------------------|
    . . . . . . . .

|-------------------------------------------------------------------|
|-------------------------------------------------------------------|
|-------------------------------------------------------------------|
|-------------------------------------------------------------------|X4
|-------------------------------------------------------------------|
|---0--3-3333-0--2-2222-0--3-3333-0-2320----------------------------|

|-------------------------------------------------------------------|
|-------------------------------------------------------------------|
|-------------------------------------------------------------------|
|-------------------------------------------------------------------|X2
|---1-111131-111131-11113135----------------------------------------|
|---0-000010-000010-00001013----------------------------------------|
      ....   ....   .... 


|-------------------------------------------------------------------|
|-------------------------------------------------------------------|
|-------------------------------------------------------------------|
|-------------------------------------------------------------------|X2
|---000000111000000333000000111000111333----------------------------|
|-------------------------------------------------------------------|

|-------------------------------------------------------------------|
|-------------------------------------------------------------------|
|-------------------------------------------------------------------|
|-------------------------------------------------------------------|X2
|---1-111131-111131-11113135----------------------------------------|
|---0-000010-000010-00001013----------------------------------------|
      ....   ....   .... 


|-------------------------------------------------------------------|
|-------------------------------------------------------------------|
|-------------------------------------------------------------------|
|-------------------------------------------------------------------|X4
|---000000111000000333000000111000111333----------------------------|
|-------------------------------------------------------------------|
Suggest correction
Give kudos to tab author, rate the tab!
1 2 3 4 5
comments
print report bad tab
guest
You may want to rate the tab now too:
select rating
Please do not post tabs as comments. Select "correction" instead!