Oops, an error
Loading. Please wait.

La Caperuputa Y El Lobo Culion Tab

2,087 views 6 this week
no commentswrite comment
1 2 3 4 5
please rate
add to favorites
launch autoscroll
font size
0
reset
how to read this tab
guitar tuner
Autoscroll
slow
fast
+/-
esc
set tempo
stop
Help us to improve Ultimate-Guitar.com Take our survey!
×
Author
Difficulty
Tuning
novice
C# G# C# F# A# D#
Band:  Cuentos de los Hermanos Grind
Album: Los Cantipuercos
Song:  La Caperuputa y el Lobo Culión

Copyright (c)  

Transcribed By: Ismael Granados
Email:          ismaelbuild88@hotmail.com


.  - palm mute           /  - slide up to
\  - slide down to       ~  - vibrato
h  - hammer on           b  - Bend
p  - pull off            Suffixes for bend
t  - tap                 f  - full bend    h - half bend
ph - pinched harmonic    q  - quarter bend t - tap bend
*  - see comment         ^  - Hold bend    r release bend
x  - Stuccatto           ~  - vibrato bend
,  - slight palm mute    () - ghost note, sustained note
"  - tremolo note        <> - Trill

Tuned: C# F# B E G# C# 

No soy muy bueno haciendo tablaturas pero es un tema bastante sencillo de tocar.

|-------------------------------------------------------------------|
|-------------------------------------------------------------------|
|-------------------------------------------------------------------|
|-------------------------------------------------------------------|X6
|-------------------------------------------------------------------|
|---00000-3-1--00000-3-1--00000-3-1---00000-1-1---------------------|


|-------------------------------------------------------------------|
|-------------------------------------------------------------------|
|-------------------------------------------------------------------|
|-------------------------------------------------------------------|X5
|---------1111--------1111--------1111--------11--------------------|
|---00000-------00000-------00000-------00000----33-----------------|

|-------------------------------------------------------------------|
|-------------------------------------------------------------------|
|-------------------------------------------------------------------|
|-------------------------------------------------------------------|X6
|-------------3333----------------3333------------------------------|
|---0000-3333------1111-0000-3333------1111-------------------------|

|-------------------------------------------------------------------|
|-------------------------------------------------------------------|
|-------------------------------------------------------------------|
|-------------------------------------------------------------------|X8
|---1-1-1-3-3-3-5-5-5-3-1-------------------------------------------|
|---0-0-0-1-1-1-3-3-3-1-0-------------------------------------------|


|-------------------------------------------------------------------|
|-------------------------------------------------------------------|
|-------------------------------------------------------------------|
|-------------------------------------------------------------------|X5
|---------1111--------1111--------1111--------11--------------------|
|---00000-------00000-------00000-------00000----33-----------------|
           
|-------------------------------------------------------------------|
|-------------------------------------------------------------------|
|-------------------------------------------------------------------|
|-------------------------------------------------------------------|X6
|-------------3333----------------3333------------------------------|
|---0000-3333------1111-0000-3333------1111-------------------------|

|-------------------------------------------------------------------|
|-------------------------------------------------------------------|
|-------------------------------------------------------------------|
|-------------------------------------------------------------------|X8
|---1-1-1-3-3-3-5-5-5-3-1-------------------------------------------|
|---0-0-0-1-1-1-3-3-3-1-0-------------------------------------------|


|-------------------------------------------------------------------|
|-------------------------------------------------------------------|
|-------------------------------------------------------------------|
|-------------------------------------------------------------------|X2
|---1----1-1-1-1-3----3-3-3-3-1----1-1-1-1-3----5-5-5-5-1-----------|
|---0----0-0-0-0-1----1-1-1-1-0----0-0-0-0-1----3-3-3-3-0-----------|



|-------------------------------------------------------------------|
|-------------------------------------------------------------------|
|-------------------------------------------------------------------|
|-------------------------------------------------------------------|
|--------2-----2------2------2------3------3-----3-----3------------|
|---0000---0000--0000---0000---0000---0000--0000---0000-------------|
    ....   ....  ....   ....   ....   ....  ....   ....

|-------------------------------------------------------------------|
|-------------------------------------------------------------------|
|-------------------------------------------------------------------|
|-------------------------------------------------------------------|X2
|--------2-----2------2------2------3------3-----4-----3------------|
|---0000---0000--0000---0000---0000---0000--0000---0000-------------|
    ....   ....  ....   ....   ....   ....  ....   ....
|-------------------------------------------------------------------|
|-------------------------------------------------------------------|
|-------------------------------------------------------------------|
|-------------------------------------------------------------------|X8
|---1-1-1-3-3-3-5-5-5-3-1-------------------------------------------|
|---0-0-0-1-1-1-3-3-3-1-0-------------------------------------------|

|-------------------------------------------------------------------|
|-------------------------------------------------------------------|
|-------------------------------------------------------------------|X4
|-------------------------------------------------------------------|
|---00001111333311110-----------------------------------------------|
    """""""""""""""""
Suggest correction
Give kudos to tab author, rate the tab!
1 2 3 4 5
comments
print report bad tab
guest
You may want to rate the tab now too:
select rating
Wanna post a correction for this tab? Suggest correction