Oops, an error
Loading. Please wait.

Blue Days Morning tab

19 views 1 this week
no commentswrite comment
1 2 3 4 5
3 more votes to show rating
add to favorites
×
Save as Personal and add changes to this tab that will be seen only by you. Learn more ›
×
You can save this tab as Personal to edit and correct it or add notes. All changes will be seen only by you. Learn more »
launch autoscroll
font size
0
reset
how to read this tab
guitar tuner
edit
Autoscroll
slow
fast
+/-
esc
set tempo
stop
(0:00)
e|---------------------------------------------------------------------------------|
B|-3--------3--------3--------3--------3--------3--------3--------3----------------|
G|-------0--------0--------0--------0--------0--------0--------0--------0----------|
D|----4--------4--------4--------4--------4--------4--------4--------4-------------|
A|-2--------2--------2--------2--------0--------0--------0--------0----------------|
E|---------------------------------------------------------------------------------|

e|---------------------------------------------------------------------------------|
B|-7--------7--------7--------7--------7--------7--------7--------7--------7-------|
G|-------0--------0--------0--------0--------0--------0--------0--------0--------0-|
D|----7--------7--------7--------7--------7--------7--------7--------7--------7----|
A|-5--------5--------5--------5--------5--------5--------5--------5--------5-------|
E|---------------------------------------------------------------------------------|

(0:14)
e|---------------------------------------------------------------------------------|
B|-10--------8--------12---------10-8---7--------7--------7--------3--5---5--------|
G|--------0--------0----------0---------------0--------0--------0---------------0--|
D|----10--------9---------12---------------7--------7--------7---------------5-----|
A|-8---------7--------10---------9--7---5--------5--------5--------2--3---3--------|
E|---------------------------------------------------------------------------------|

e|-----------------------------------------------------0--------0--------0---------|
B|-6--------5--------3--5---5--------6--------5--------------5--------5--------5---|
G|-------0--------0---------------0--------0--------0-----0--------0--------0------|
D|----5--------5---------------5--------5--------5---------------------------------|
A|-3--------3--------2--3---3--------3--------3------------------------------------|
E|-----------------------------------------------------0--------0--------0---------|

e|-0-----0--------0--------0--------0--------0--------0--------0--------0----------|
B|----5--------3--------3--------3--------3--------3--------3--------3--------3----|
G|---------------------------------------------------------------------------------|
D|----------3--------3--------3--------3--------3--------3--------3--------3-------|
A|-------1--------1--------1--------1--------1--------1--------1--------1----------|
E|-0-------------------------------------------------------------------------------|

(0:35)
e|---------------------------------------------------------------------------------|
B|-3--------3--------3--------3--------3--------3--------3--------3----------------|
G|-------0--------0--------0--------0--------0--------0--------0--------0----------|
D|----4--------4--------4--------4--------4--------4--------4--------4-------------|
A|-2--------2--------2--------2--------0--------0--------0--------0----------------|
E|---------------------------------------------------------------------------------|

e|---------------------------------------------|
B|-7--------7--------7--------7--------7-------|
G|-------0--------0--------0--------0--------0-|
D|----7--------7--------7--------7--------7----|
A|-5--------5--------5--------5--------5-------|
E|---------------------------------------------|

(0:45)
e|---------------------------------------------------------------------------------|
B|-10--------8--------12---------10-8---7--------7--------7--------3--5---5--------|
G|--------0--------0----------0---------------0--------0--------0---------------0--|
D|----10--------9---------12---------------7--------7--------7---------------5-----|
A|-8---------7--------10---------9--7---5--------5--------5--------2--3---3--------|
E|---------------------------------------------------------------------------------|

e|-----------------------------------------------------0--------0--------0---------|
B|-6--------5--------3--5---5--------6--------5--------------5--------5--------5---|
G|-------0--------0---------------0--------0--------0-----0--------0--------0------|
D|----5--------5---------------5--------5--------5---------------------------------|
A|-3--------3--------2--3---3--------3--------3------------------------------------|
E|-----------------------------------------------------0--------0--------0---------|

e|-0-----0--------0--------0--------0--------0--------0--------0--------0----------|
B|----5--------3--------3--------3--------3--------3--------3--------3--------3----|
G|---------------------------------------------------------------------------------|
D|----------3--------3--------3--------3--------3--------3--------3--------3-------|
A|-------1--------1--------1--------1--------1--------1--------1--------1----------|
E|-0-------------------------------------------------------------------------------|

(1:06)
e|---------------------------------------------------------------------------------|
B|-3--------3--------3--------3--------3--------3--------3--------3----------------|
G|-------0--------0--------0--------0--------0--------0--------0--------0----------|
D|----4--------4--------4--------4--------4--------4--------4--------4-------------|
A|-2--------2--------2--------2--------0--------0--------0--------0----------------|
E|---------------------------------------------------------------------------------|

e|---------------------------------0----------0----------0----------0--------------|
B|-7--------12---------10------10---------10---------10---------10--------10-------|
G|-------0----------0--------------------------------------------------------------|
D|----7---------12---------10----------10---------10--------10---------10----------|
A|-5--------10---------8-----------8----------8----------8----------8--------------|
E|---------------------------------------------------------------------------------|

e|-0----------0----------0-----------0--------0--------0--------0--------0---------|
B|--------10---------10--------(10)--------3--------3--------3--------3--------3---|
G|--------------------------------------0--------0--------0--------0--------0------|
D|----10---------10---------10-----------------------------------------------------|
A|-8----------8----------8-----------3--------3--------3--------3--------3---------|
E|---------------------------------------------------------------------------------|

e|-0--------0--------0-------------------------------------------------------------|
B|-------3--------3-------(3)--12---------12---------12---------12-----------------|
G|----0--------0--------0--------------0----------0----------0----------0----------|
D|---------------------------------12---------12---------12---------12-------------|
A|-3--------3--------3---------10---------10---------10---------10-----------------|
E|---------------------------------------------------------------------------------|

(1:29)
e|---------------------------------------------------------------------------------|
B|-8--------8--------8--------8--------6--------6--------6--------6----------------|
G|-------0--------0--------0--------0--------0--------0--------0--------0----------|
D|----8--------8--------8--------8--------7--------7--------7--------7-------------|
A|-6--------6--------6--------6--------5--------5--------5--------5----------------|
E|---------------------------------------------------------------------------------|

e|---------------------------------------------------------------------------------|
B|-5--------4--------3--------3--------3--------3--------5--------5----------------|
G|-------0--------0--------0--------0--------0--------0--------0--------0----------|
D|----5--------5--------4--------4--------4--------4--------5--------5-------------|
A|-3--------3--------2--------2--------2--------2--------3--------3----------------|
E|---------------------------------------------------------------------------------|

e|------------------------------------------------------------------------------------------|
B|-7--------7--------8--------8--------8--------8--------8--------8--------8--------8-------|
G|-------0--------0--------0--------0--------0--------0--------0--------0--------0--------0-|
D|----7--------7--------8--------8--------8--------8--------8--------8--------8--------8----|
A|-5--------5--------6--------5--------6--------6--------7--------7--------8--------8-------|
E|------------------------------------------------------------------------------------------|

e|---------------------------------------------------------------------------------|
B|-3--------3--------3--------3--------3--------3--------5--------5----------------|
G|-------0--------0--------0--------0--------0--------0--------0--------0----------|
D|----4--------4--------4--------4--------4--------4--------4--------4-------------|
A|-2--------2--------2--------2--------0--------0--------0--------0----------------|
E|---------------------------------------------------------------------------------|

e|----------0-----------------0-------etc.|
B|-7-----------------7----------------etc.|
G|-------0--------0--------0--------0-etc.|
D|----7--------7--------7--------7----etc.|
A|-5--------5--------5--------5-------etc.|
E|----------------------------------------|


************************************

| (n) Ghost note

************************************

            
            
Suggest correction
Creating personal tab
Creating personal tab
You can edit any tab online and save it as your Personal.

You can edit, replace or remove any tab part or add personal notes – all changes will be seen only by you.

Personal tabs can be accessed anytime from any device, even offline.
Learn more »
Give kudos to tab author, rate the tab!
1 2 3 4 5
comments
print report bad tab
guest
You may want to rate the tab now too:
select rating
Wanna post a correction for this tab? Suggest correction