Oops, an error
Loading. Please wait.

You Know What I Mean tab

by Cults
602 views 3 this week
no commentswrite comment
1 2 3 4 5
3 more votes to show rating
add to favorites
×
Save as Personal and add changes to this tab that will be seen only by you. Learn more ›
×
You can save this tab as Personal to edit and correct it or add notes. All changes will be seen only by you. Learn more »
launch autoscroll
font size
0
reset
how to read this tab
guitar tuner
edit
Autoscroll
slow
fast
+/-
esc
set tempo
stop
-------------------------------------------------------------------------------
                             YOU KNOW WHAT I MEAN - Cults
-------------------------------------------------------------------------------
Tabbed by: Polarchimps
E-mail: polarchimps@gmail.com

Tuning: Standard, capo 4th fret

For verse 3 you can either strum the chords once each, or you can replay verse 1. That 
isn't how it's played originally, but makes it sound a bit fuller in my opinion.
Intro

e|---------------------------------------------------------------------------|
B|---------------------3------3------1------1--------------------------------|
G|----0-------0-------4-4----4-4----0-0----2-2-----0------0------------------|
D|---0-0-----0-0-----4---4--4---4--2---2--2---2---0-0----0-0-----------------|
A|--2---2---2---2---2------2------3------0-------2---2--2---2----------------|
E|-3-------3------------------------------------3------3---------------------|

Verse 1
I can't take things slowly...Cause I seem to have lost it
e|---------------------------------------------------------------------------|
B|---------------------3------3------1------1--------------------------------|
G|----0-------0-------4-4----4-4----0-0----2-2-----0------0------------------|
D|---0-0-----0-0-----4---4--4---4--2---2--2---2---0-0----0-0-----------------|
A|--2---2---2---2---2------2------3------0-------2---2--2---2----------------|
E|-3-------3------------------------------------3------3---------------------| x2

(strum chords)
      Bm                 C
Cause I am afraid of the light
                     G
Yeah, you know what I mean
    Bm                     C
And I can't sleep alone at night
                      G
Yeah, you know what I mean


Verse 2 
G                           Bm
Lonely, that's not quite my problem
  C          Am                  G
I have all I need, haven't quite lost it
G                   Bm
I try so hard to be happy
C                    Am         
But something goes wrong once again


Verse 3
G                       Bm
Please, please come and save me
C                            Am
Tell me what's wrong with my brain
                     G
Cause I seem to have lost it


Chorus
      Bm                 C
Cause I am afraid of the light
                     G
Yeah, you know what I mean
    Bm                     C
And I can't sleep alone at night
                      G
Yeah, you know what I mean


      Bm                 C
Cause I am afraid of the light
                     G
Yeah, you know what I mean
    Bm                     C
And I can't sleep alone at night
                      G
Yeah, you know what I mean

            
            
Suggest correction
Creating personal tab
Creating personal tab
You can edit any tab online and save it as your Personal.

You can edit, replace or remove any tab part or add personal notes – all changes will be seen only by you.

Personal tabs can be accessed anytime from any device, even offline.
Learn more »
Give kudos to tab author, rate the tab!
1 2 3 4 5
comments
print report bad tab
guest
You may want to rate the tab now too:
select rating
Wanna post a correction for this tab? Suggest correction