Oops, an error
Loading. Please wait.

Miss Me Blind Bass Tab

874 views 1 this week
no commentswrite comment
1 2 3 4 5
3 more votes to show rating
add to favorites
launch autoscroll
font size
0
reset
guitar tuner
Autoscroll
slow
fast
+/-
esc
set tempo
stop
Help us to improve Ultimate-Guitar.com Take our survey!
×
Author
Difficulty
novice
ARTIST:CULTURE CLUB
SONG:MISS ME BLIND
Tabbed By:Gary Hricewich
Email:snapper2001@msn.com

PLEASE NOTE: 11 ARE 1'S/ NOT ELEVENS
                                                                            
     CHORUS                                                           2X
G---|--------------|-------------|---------------------------------------|
D---|*-------------|-------------|----------------------3-5-------------*|
A---|*-------------|-------------|-3--3-3-3--3-3--3-3-5-----------------*|
E---|--3--3-3-3--3-|-1--1-1-1--1-|---------------------------------------|
                                                                            
                                                                                         
     VERSE               2X                                                         2X
G---|---------|-----|------|-|--------------|-------------|---------------------------|
D---|*--------|-----|-----*|-|*-------------|-------------|----------------------3-5-*|
A---|*--------|---3-|-3-3-*|-|*-------------|-------------|-3--3-3-3--3-3--3-3-5-----*|
E---|--3--3-1-|-1---|------|-|--3--3-3-3--3-|-1--1-1-1--1-|---------------------------|
                                                                                         
                                                                                       
                                                                  END VERSE
G--------------------------------------------|------------------------------|---------|
D--------------------------------------------|------------------------------|-------3-|
A---3--3-3-3--3--3-3-3--3--3-3-3--3--3-3-5-5-|-3--3-3-3--3--3-3-3--3--3-3-3-|-3-5-6---|
E--------------------------------------------|------------------------------|---------|
     CHORUS 2X
     VERSE                                                                                  
                                                                                       
                                                           
     BRIDGE                     3X
G---|--------------|--------------|-------------|---------|
D---|*-------------|-------------*|-------------|-------3-|
A---|*-6--6-6-6--6-|-4--4-4-4--4-*|-6--6-6-6--6-|-3-5-6---|
E---|--------------|--------------|-------------|---------|
    CHORUS 6X [2 VOCAL AND 4 LEAD GUITAR]                                                       
                                                           
                                                                                           
  INTERLUDE                                                                           3X
G---------------|-------------|-------------|--------------|----------------------------|
D---------------|-------------|-------------|----------3-5-|*----------------------3-5-*|
A---------------|-6--6-6-6--6-|-4--4-4-4--4-|-3--3-3-5-----|*-3--3-3-3--3-3--3-3-5-----*|
E---3--3-3-3--3-|-------------|-------------|--------------|----------------------------|
                                                                                           
                                   
G---------------|------------------|
D---------------|-------3--------3-|
A---3--3-3-3--3-|-3-5-6----3-5-6---|
E---------------|------------------|
   CHORUS 5X// STOP// VOCALS// END
Suggest correction
Give kudos to tab author, rate the tab!
1 2 3 4 5
comments
print report bad tab
guest
You may want to rate the tab now too:
select rating
Wanna post a correction for this tab? Suggest correction