Oops, an error
Loading. Please wait.

Que Loco Amor chords

29 views 1 this week
no commentswrite comment
1 2 3 4 5
3 more votes to show rating
add to favorites
×
Save as Personal and add changes to this tab that will be seen only by you. Learn more ›
×
You can save this tab as Personal to edit and correct it or add notes. All changes will be seen only by you. Learn more »
launch autoscroll
font size
0
reset
transpose
0
reset
display chords
guitar tuner
edit
Autoscroll
slow
fast
+/-
esc
set tempo
stop
Strumming
There is no strumming pattern for this song yet. and get +5 IQ
Un Saludos a Qmbia Way y Qmbia juan

INTRO
G x4
(en esta parte en realidad no suena la guitarra hasta que comienza
 a cantar)

   G              C         D
E|---------------------------------------|
B|-3---3---3---3-----5---5-----7---7-----|
G|--4-4-4-4-4-4-4-4---5-5-5-5---7-7-7-7--|
D|---5---5---5---5-----5---5-----7---7---|
A|---------------------------------------|
E|---------------------------------------|
entonces siguiendo las notas los arpegios serian asi ;)

G            C             D
Que loco amor, que locura has cometido conmigo
G            C              D
Que loco amor, tu en mercerdez y yo en zapatillas
G            C              D
Que loco amor, tu en paginas sociales y Yo
  C                 D
Abrazandote y haciendote el amor, ayyyy
E|----------------------------------------|
B|-5-5--5-5--5-5--5-5--7-7--7-7--7-7--7-7-|
G|-5-5--5-5--5-5--5-5--7-7--7-7--7-7--7-7-|
D|-5-5--5-5--5-5--5-5--7-7--7-7--7-7--7-7-|
A|----------------------------------------|
E|----------------------------------------|
y aqui en esta parte seria asi ;)

G            C
Que loco amor, tu vas al centenario y
D              G
Yo en la plaza fumando estoy
C             D                  G
tu vas restaurantes y yo a un panchero voy
C            D                 G
tiene cuentas bancarias y en inforcom
C              D
Hay que loco amor   [Saltandooo]

CORO:(ESTRIBILLO)
PARTE SKA

   G      Bm      C       D
E|-7-7-7-7--7-7-7-7--8-8-8-8--10-10-10-10-|
B|-8-8-8-8--7-7-7-7--8-8-8-8--10-10-10-10-|
G|-7-7-7-7--7-7-7-7--9-9-9-9--11-11-11-11-|
D|----------------------------------------|
A|----------------------------------------|
E|----------------------------------------|

G            Bm
Pero ahora a escondidas andamos
C                D
Me escondes de tus padres y hermanos
G               Bm
Me importa poco los que ellos diran
C                D
Por ser pobre sin clase social

SE REPITE DOS VECES LA PARTE CANTADA,
Y LUEGO DOS VECES INSTRUMENTAL CON LAS MISMAS NOTAS

G            C
Que loco amor, tu vas al centenario y
D              G
Yo en la plaza fumando estoy
C             D                  G
tu vas restauranes y yo a un panchero voy
C            D                 G
tiene cuentas bancarias y en inforcom
C              D
Hay que loco amor   [Saltandooo]


REPITE CORO:(ESTRIBILLO)
PARTE SKA


G                               C            D
hay que loco amor hay que loco amor hay que loco
G
hay que loco amor
            C          D
que se robo mi corazon
G
hay que loco amor
            C          D
tu carita me enamoro
G
hay que loco amor
            C          D
tu carita me enamoro

G-C-D x2
G

            
            
Suggest correction
Creating personal tab
Creating personal tab
You can edit any tab online and save it as your Personal.

You can edit, replace or remove any tab part or add personal notes – all changes will be seen only by you.

Personal tabs can be accessed anytime from any device, even offline.
Learn more »
Give kudos to tab author, rate the tab!
1 2 3 4 5
comments
print report bad tab
guest
Wanna post a correction for this tab? Suggest correction