Oops, an error
Loading. Please wait.

Alcohol, Oi!, Violencia! bass

26 views 1 this week
no commentswrite comment
1 2 3 4 5
3 more votes to show rating
add to favorites
×
Save as Personal and add changes to this tab that will be seen only by you. Learn more ›
×
You can save this tab as Personal to edit and correct it or add notes. All changes will be seen only by you. Learn more »
launch autoscroll
font size
0
reset
guitar tuner
edit
Autoscroll
slow
fast
+/-
esc
set tempo
stop
Bueno pos aqui los saludo esta es mi primera transcripcion que hago y tb es
la primera cancion que me aprendi con la banda


la cancion empieza tras el arrastre de la guitarra

Fig 1
G|--------------------|
D|--------------------|
A|--------------------|
E|-2-222-222-222------|


 de aqui cuando comienza la letra

se ha acabado la semana tengo ganas de tomar...

G|---------------------------------------------|
D|---------------------------------------------|
A|--------------------5-5555555--4-4444444-----|
E|--2-222--5-5555555---------------------------|

ya ha llegado la pandilla empieza a reunirse el crew...

G|---------------------------------------------|
D|---------------------------------------------|
A|--------------------5-5555555--4-4444444-----|
E|--2-222--5-5555555---------------------------|

punks y cabezas rapadas todos juntos en el bar...

Fig 1
G|--------------------|
D|--------------------|
A|--------------------|
E|-2-222-222-222------|

Hartos ya de la rutina...

G|---------------------------------------------|
D|---------------------------------------------|
A|--------------------5-5555555--4-4444444-----|
E|--2-222--5-5555555---------------------------|

Sobran botas y tirantes

G|---------------------------------------------|
D|---------------------------------------------|
A|--------------------5-5555555--4-4444444-----|
E|--2-222--5-5555555---------------------------|

G|--------------------|
D|--------------------|
A|--------------------|
E|-2-222-222-222------|

Alcohol oi violencia!

G|--------------------------------|
D|--------------------------------|
A|-2-2---55555--------77777-------| x 2
E|-------------55555--------------|

G|--------------------|
D|--------------------|
A|--------------------|
E|-2-222-222-222------|

se ha acabado la cerveza hay que irse a otro lugar...

G|---------------------------------------------|
D|---------------------------------------------|
A|--------------------5-5555555--4-4444444-----|
E|--2-222--5-5555555---------------------------|
gritamos desaforados nadie se atreve a mirar...

G|---------------------------------------------|
D|---------------------------------------------|
A|--------------------5-5555555--4-4444444-----|
E|--2-222--5-5555555---------------------------|

G|--------------------|
D|--------------------|
A|--------------------|
E|-2-222-222-222------|

dicen que estamos muy ebrios no nos dejaran entrar...

G|---------------------------------------------|
D|---------------------------------------------|
A|--------------------5-5555555--4-4444444-----|
E|--2-222--5-5555555---------------------------|
caen vidrios y persianas...

G|---------------------------------------------|
D|---------------------------------------------|
A|--------------------5-5555555--4-4444444-----|
E|--2-222--5-5555555---------------------------|

G|--------------------|
D|--------------------|
A|--------------------|
E|-2-222-222-222------|

alcohol oi violencia !

G|--------------------------------|
D|--------------------------------|
A|-2-2---55555--------77777-------| x 2
E|-------------55555--------------|

G|--------------------|
D|--------------------|
A|--------------------|
E|-2-222-222-222------| y se deja sonando la 2

Bien espero les sea de ayuda es una cancion muy buena y facil de tocar
un saludo del geek bajista de los anarcoholicos/las babosas radioactivas
pa lo que sea ahi tienen mi mail en mi perfil
salud y anarquía

            
            
Suggest correction
Creating personal tab
Creating personal tab
You can edit any tab online and save it as your Personal.

You can edit, replace or remove any tab part or add personal notes – all changes will be seen only by you.

Personal tabs can be accessed anytime from any device, even offline.
Learn more »
Give kudos to tab author, rate the tab!
1 2 3 4 5
comments
print report bad tab
guest
Wanna post a correction for this tab? Suggest correction