Oops, an error
Loading. Please wait.

A Song For Douglas After Hes Dead tab

2,242 views 3 this week
2 commentsread comments
1 2 3 4 5
2 more votes to show rating
add to favorites
×
Save as Personal and add changes to this tab that will be seen only by you. Learn more ›
×
You can save this tab as Personal to edit and correct it or add notes. All changes will be seen only by you. Learn more »
launch autoscroll
font size
0
reset
how to read this tab
guitar tuner
edit
Autoscroll
slow
fast
+/-
esc
set tempo
stop
Difficulty
a song for douglas after he's dead
current 93
thunder perfect mind

intro
  Am
e|---------------------------------------------|
B|--------1-0----------------------1-0---------|
G|-2-22-2-----22-0-2----2---22-2-------22-0-2--|
D|------------------------2------2----2--------|
A|-----------------------0------0--------------|
E|---------------------------------------------|

verse
   Am       F        Dm          E
e|-0--0----------------------------------|
B|--1--1----1--1----------------0--0-----|
G|---2--2----2--2----2----2------1--1----|
D|------------3--3----3-0--3-0----2--2---|
A|---------------------------------------|
E|---------------------------------------|

            
            
Suggest correction
Creating personal tab
Creating personal tab
You can edit any tab online and save it as your Personal.

You can edit, replace or remove any tab part or add personal notes – all changes will be seen only by you.

Personal tabs can be accessed anytime from any device, even offline.
Learn more »
Give kudos to tab author, rate the tab!
1 2 3 4 5
comments
print report bad tab
2 comments total.
0 reply
vomitingself 105 Feb 11, 2013 07:51 PM

e|---------------------------------------------|
B|--------1-0----------------------1-0---------|
G|-2-22-2-----22-1-2----2---22-2-------22-1-2--|
D|------------------------2------2----2--------|
A|-----------------------0------0--------------|
E|---------------------------------------------|

0 reply
drillkicker 266 Jul 24, 2015 09:58 AM

You left out the bass notes. I always play it as:
Am F Dm E
e|-0--0-----1--1-------1----1---0--0-----|
B|--1--1-----1--1----3----3------0--0----|
G|---2--2-----2--2----2----2------1--1---|
D|-------------------0---0---------------|
A|-0--0-----1--1----------------2--2-----|
E|---------------------------------------|

You seem to have written the tablature based on the harp part rather than the guitar part.

guest
Wanna post a correction for this tab? Suggest correction