Oops, an error
Loading. Please wait.

Home Pt 1 And 2 tab

220 views 39 this week
no commentswrite comment
1 2 3 4 5
1 last vote to show rating
add to favorites
×
Save as Personal and add changes to this tab that will be seen only by you. Learn more ›
×
You can save this tab as Personal to edit and correct it or add notes. All changes will be seen only by you. Learn more »
launch autoscroll
font size
0
reset
how to read this tab
guitar tuner
edit
Autoscroll
slow
fast
+/-
esc
set tempo
stop
About this tab version
Full guitar tab with multiple overdub parts. Please rate or comment. Was this info helpful? Yes No
[Theme 1]

D#|----------------------------|
A#|----------------------------|
F#|---------2--------4p2-------|
C#|----2h4----------------4----| play 4x
G#|----------------------------|
C#|-0-------------0------------|

D#|----------------------------|
A#|----3p2---------------------|
F#|---------4--------4p2-------|
C#|-----------------------4----| play 2x
G#|----------------------------|
C#|-0-------------0------------|

Repeat theme 1 through the next parts


[Droning Part]

D#|-----------------------------|
A#|-----------------------------|
F#|-----------------------------|  start repeating this around 0:40 
C#|----------4--------------4---|  on second guitar behind Theme 1
G#|------0--------------0-------|
C#|-0--------------0------------|



[Lead Riff Part]

    Starting around 1:06, repeat this on a third guitar
D#|-------------------------------------------------|-------------------------------------------------|
A#|----10----10----10----10----10----10----10----10-|----12----12----12----12----12----12----12----12-|
F#|-11----11----11----11----11----11----11----11----|-11----11----11----11----11----11----11----11----|
C#|-------------------------------------------------|-------------------------------------------------|
G#|-------------------------------------------------|-------------------------------------------------|
C#|-------------------------------------------------|-------------------------------------------------|

Riffs stop at 1:57



[Theme 2]

    Repeat this theme similarly until 3:30
D#|----------------------|-------------------------|------------------0-------|------------------0-------|
A#|-7--5----5-------5----|-7--5----5-------5-------|---------------3-------3--|---------------3-------3--|
F#|------------7---------|------------7-------7p4--|-4--4-------4-------------|-4--4-------4-------------|
C#|-4--4-------4----4----|-4--4-------4----4-------|-0----0-0-0---------------|-0----0-0-0---------------|
G#|----------------------|-0--0--------------------|--------------------------|--------------------------|
C#|----------------------|-0-----------------------|--------------------------|--------------------------|



[Chorus]
D#|----3-----3---------------|-----3-----3--------------|
A#|----0-----0----------0----|-----0-----0---------0----|
F#|----0-----0-----0---------|-----0-----0--------------|
C#|----2-----2---------------|-----2-----2----2---------|
G#|-2------------------------|--2-------------0---------|
C#|--------------------------|--------------------------|



[Bridge 1]
D#|-7--5----5-------5----|
A#|------------7---------|
F#|----------------------| play similarly 8x
C#|----0--0-------0------|
G#|----0--0-------0------|
C#|----------------------|



[Bridge 2]
D#|---------------------------|---------------------------|-7--5---------5-----|-7--5---------5-----|
A#|---------------------------|---------------------------|---------7----------|---------7----------|
F#|-7----9---/11-----/14------|-7----9---/11-----/14------|--------------------|--------------------|
C#|-0----0-----0-------0------|-0----0-----0-------0------|-5--5-------5-------|-5--5-------5-------|
G#|---------------------------|---------------------------|-5--5-------5-------|-5--5-------5-------|
C#|---------------------------|---------------------------|-5------------------|-5------------------|

[Ending]

D#|---------------------------|---------------------------|-7--5---------5-----|-7--5----------------|------|
A#|---------------------------|---------------------------|---------7----------|---------7--5-----5--|------|
F#|-7----9---/11-----/14------|-7----9---/11-----/14------|--------------------|---------------7-----|-7----|
C#|-0----0-----0-------0------|-0----0-----0-------0------|-5--5-------5-------|-5--5----------------|-0----|
G#|---------------------------|---------------------------|-5--5-------5-------|-5--5----------------|-0----|
C#|---------------------------|---------------------------|-5------------------|-5-------------------|-0----|


Repeat Theme 2 above when Guitar resumes until the end



************************************

| h   Hammer-on
| p   Pull-off
| /   Slide up
| \   Slide down

************************************
Suggest correction
Creating personal tab
Creating personal tab
You can edit any tab online and save it as your Personal.

You can edit, replace or remove any tab part or add personal notes – all changes will be seen only by you.

Personal tabs can be accessed anytime from any device, even offline.
Learn more »
Give kudos to tab author, rate the tab!
1 2 3 4 5
comments
print report bad tab
guest
You may want to rate the tab now too:
select rating
Wanna post a correction for this tab? Suggest correction