Oops, an error
Loading. Please wait.

Kids tab

973 views 45 this week
no commentswrite comment
1 2 3 4 5
2 more votes to show rating
add to favorites
×
Save as Personal and add changes to this tab that will be seen only by you. Learn more ›
×
You can save this tab as Personal to edit and correct it or add notes. All changes will be seen only by you. Learn more »
launch autoscroll
font size
0
reset
how to read this tab
guitar tuner
edit
Autoscroll
slow
fast
+/-
esc
set tempo
stop
[Intro]
e|---------------------|----------------------|----------------------|-----------------------|
B|---6-----6-----6-----|----6-----6-----6-----|----4-----4-----4-6-4-|-----4-----4-----4-----|
G|-----8-----8-----8---|------6-----6-----6---|------4-----4---------|-6-----6-----6-----6---| (x2)
D|-8-----8-----8-----8-|--6-----6-----6-----6-|--4-----4-----4-------|---------4-----4-----4-|
A|---------------------|----------------------|----------------------|-----------------------|
E|---------------------|----------------------|----------------------|-----------------------|

[Verse 1]
e|---------------------|----------------------|----------------------|-----------------------|
B|---6-----6-----6-----|----6-----6-----6-----|----4-----4-----4-6-4-|-----4-----4-----4-----|
G|-----8-----8-----8---|------6-----6-----6---|------4-----4---------|-6-----6-----6-----6---|
D|-8-----8-----8-----8-|--6-----6-----6-----6-|--4-----4-----4-------|---------4-----4-----4-|
A|---------------------|----------------------|----------------------|-----------------------|
E|---------------------|----------------------|----------------------|-----------------------|

I am just a kid 
I never use my brain 
I only use my heart 
And my imagination 

[Verse 2]
e|---------------------|----------------------|----------------------|-----------------------|
B|---6-----6-----6-----|----6-----6-----6-----|----4-----4-----4-6-4-|-----4-----4-----4-----|
G|-----8-----8-----8---|------6-----6-----6---|------4-----4---------|-6-----6-----6-----6---|
D|-8-----8-----8-----8-|--6-----6-----6-----6-|--4-----4-----4-------|---------4-----4-----4-|
A|---------------------|----------------------|----------------------|-----------------------|
E|---------------------|----------------------|----------------------|-----------------------|

I am just a kid 
I always make mistakes 
And I never say I'm sorry 
Cause there mistakes that I made 

[Instrumental]
e|----------------------|---------------------------|--------------------------|---------------------|
B|----------------------|---------------------------|--------------------------|---------------------|
G|----------------------|---------------------------|--------------------------|---------------------|
D|----------------------|-6-------------------------|-4------------------3-----|---------------------| (x2)
A|---4-4---4-4---4--4-4-|---8--8--6-8--8-6-8--6-8-8-|---6--6--4-6--6-4-6---6-4-|---1---1-1--1-1--1---|
E|-6----6-----6----6----|---------------------------|--------------------------|-2------2----2-----2-|

[Verse 3]
e|---------------------|----------------------|----------------------|-----------------------|
B|---6-----6-----6-----|----6-----6-----6-----|----4-----4-----4-6-4-|-----4-----4-----4-----|
G|-----8-----8-----8---|------6-----6-----6---|------4-----4---------|-6-----6-----6-----6---|
D|-8-----8-----8-----8-|--6-----6-----6-----6-|--4-----4-----4-------|---------4-----4-----4-|
A|---------------------|----------------------|----------------------|-----------------------|
E|---------------------|----------------------|----------------------|-----------------------|

I am just a kid 
I've never seen the world 
And I haven't quite decided 
If I'm a boy or a girl 

[Verse 4]
e|---------------------|----------------------|----------------------|-----------------------|
B|---6-----6-----6-----|----6-----6-----6-----|----4-----4-----4-6-4-|-----4-----4-----4-----|
G|-----8-----8-----8---|------6-----6-----6---|------4-----4---------|-6-----6-----6-----6---|
D|-8-----8-----8-----8-|--6-----6-----6-----6-|--4-----4-----4-------|---------4-----4-----4-|
A|---------------------|----------------------|----------------------|-----------------------|
E|---------------------|----------------------|----------------------|-----------------------|

Oh I am just a kid 
I'm afraid of the dark 
But I'm obsessed with ideas 
One day I'll go far 

[Instrumental]
e|----------------------|---------------------------|--------------------------|---------------------|
B|----------------------|---------------------------|--------------------------|---------------------|
G|----------------------|---------------------------|--------------------------|---------------------|
D|----------------------|-6-------------------------|-4------------------3-----|---------------------| (x2)
A|---4-4---4-4---4--4-4-|---8--8--6-8--8-6-8--6-8-8-|---6--6--4-6--6-4-6---6-4-|---1---1-1--1-1--1---|
E|-6----6-----6----6----|---------------------------|--------------------------|-2------2----2-----2-|

[Verse 5]
e|---------------------|----------------------|----------------------|-----------------------|
B|---6-----6-----6-----|----6-----6-----6-----|----4-----4-----4-6-4-|-----4-----4-----4-----|
G|-----8-----8-----8---|------6-----6-----6---|------4-----4---------|-6-----6-----6-----6---|
D|-8-----8-----8-----8-|--6-----6-----6-----6-|--4-----4-----4-------|---------4-----4-----4-|
A|---------------------|----------------------|----------------------|-----------------------|
E|---------------------|----------------------|----------------------|-----------------------|

Oh I'm no longer a kid 
And everything has changed 
There's nothing in my heart 
And lightning in my brain 

[Verse 6]
e|---------------------|----------------------|----------------------|-----------------------|
B|---6-----6-----6-----|----6-----6-----6-----|----4-----4-----4-6-4-|-----4-----4-----4-----|
G|-----8-----8-----8---|------6-----6-----6---|------4-----4---------|-6-----6-----6-----6---|
D|-8-----8-----8-----8-|--6-----6-----6-----6-|--4-----4-----4-------|---------4-----4-----4-|
A|---------------------|----------------------|----------------------|-----------------------|
E|---------------------|----------------------|----------------------|-----------------------|

So listen up you kids 
And here what I say 
Don't listen to your brain 
And follow your dreams

[Outro]
e|----------------------|---------------------------|--------------------------|---------------------|
B|----------------------|---------------------------|--------------------------|---------------------|
G|----------------------|---------------------------|--------------------------|---------------------|
D|----------------------|-6-------------------------|-4------------------3-----|---------------------| (x2)
A|---4-4---4-4---4--4-4-|---8--8--6-8--8-6-8--6-8-8-|---6--6--4-6--6-4-6---6-4-|---1---1-1--1-1--1---|
E|-6----6-----6----6----|---------------------------|--------------------------|-2------2----2-----2-|

            
            
Suggest correction
Creating personal tab
Creating personal tab
You can edit any tab online and save it as your Personal.

You can edit, replace or remove any tab part or add personal notes – all changes will be seen only by you.

Personal tabs can be accessed anytime from any device, even offline.
Learn more »
Give kudos to tab author, rate the tab!
1 2 3 4 5
comments
print report bad tab
guest
You may want to rate the tab now too:
select rating
Wanna post a correction for this tab? Suggest correction