Oops, an error
Loading. Please wait.

Chestermans Valley tab

version 1
version 1

Whole song

7,554 views 6 this week
2 commentsread comments
1 2 3 4 5
x 5
add to favorites
×
Save as Personal and add changes to this tab that will be seen only by you. Learn more ›
×
You can save this tab as Personal to edit and correct it or add notes. All changes will be seen only by you. Learn more »
launch autoscroll
font size
0
reset
how to read this tab
guitar tuner
edit
Autoscroll
slow
fast
+/-
esc
set tempo
stop
Author
Difficulty
\-------------------------------------------------------------------------------
                             Chesterman's Valley - Current Swell
-------------------------------------------------------------------------------
Tabbed by:Kevin
Email:almostasn112@aol.com

Tuning:EADGBE

     Intro
e|----------------------------------------------------------------------------|
B|----------------------------------------------------------------------------|
G|----------------------------------------------------------------------------|
D|-4--444-------2------4-----------2--------------4------2------2---4-2-------|
A|---------2h4-----2------222-2h4------444--4\6-------2-----2h4----------4-2--|
E|----------------------------------------------------------------------------|


e|-----2----------------------------7--------------------------2---------------|
B|-----2---------------------------  7--------------------------2--------------|
G|---- 3----------------------------8--------------------------3---------------|
D|---- 4-----------2--4-2-----------9--------2--4-2------------4--------2------|
A|---- 4------2h4---------4-2-------9----2h4--------4-2--------4----2h4--------|
E|---- 2----------------------------7--------------------------2---------------|


e|----------------7-----------------------------------------------------------|
B|----------------7-----------------------------------------------------------|
G|----------------8-----------------------------------------------------------|
D|--4-2-----------9-----------------------------------------------------------|
A|-------4-2------9----2h4----2h4---------------------------------------------|
E|----------------7---------5------5------------------------------------------|

 Opening

  play 7x's
e|-------------- 2----------------------7-------------------------------------|
B|-------------- 2----------------------7-------------------------------------|
G|--------------3----------------------8--------------------------------------|
D|--------------4----------------------9--------------------------------------|
A|--------------4----------------------9--------------------------------------|
E|--------------2----------------------7--------------------------------------|

Bridge  Play 2x's


e|------2--------- 9--------- 7----------5--------------------2---------9-------|
B|-----  2--------- 9--------- 7----------5--------------------2---------9------|
G|----- 3---------10---------8----------6--------------------3---------8--------|
D|----- 4---------11---------9----------7--------------------4---------7--------|
A|----- 4--------   11---------9----------7--------------------4---------7------|
E|----- 2---------  9--------- 7----------5--------------------2---------9------|


e|----7-----------------------------------------------------------------------|
B|----7-----------------------------------------------------------------------|
G|----8-----------------------------------------------------------------------|
D|----9-----------------------------------------------------------------------|
A|----9-----------------------------------------------------------------------|
E|----7-----------------------------------------------------------------------|

Main Riff 7x's


e|----2-----------7------------5------------7---------------------------------|
B|----2-----------7------------5------------7---------------------------------|
G|----3-----------8------------6------------8---------------------------------|
D|----4-----------9------------7------------9---------------------------------|
A|----4-----------9------------7------------9---------------------------------|
E|----2-----------7------------5------------7---------------------------------|
                                                  Outro


e|--------------------------------2-------------------------7------------- 5------|
B|--------------------------------2-----------2--4-2--------7------------- 5------|
G|--play bridge 2x's-----------------3-------------------2h4----8-----4-2----  6--|
D|-------------------------------4--------------------------9-------------7-------|
A|-------------------------------4--------------------------9-------------7-------|
E|-------------------------------2--------------------------7-------------5-------|


e|----5---------6---------7---------------------------------------------------|
B|----5---------6---------7---------------------------------------------------|
G|----6---------7---------8---------------------------------------------------|
D|----7---------8---------9---------------------------------------------------|
A|----7---------8---------9-----------7h9-------------------------------------|
E|----5---------6---------7-----7h9-------------------------------------------|

Main Riff until End

Bar Chords:

 F# Major,        B Major,        A Major,      C# Major.
      2                7              5                9
      2                7              5                9
      3                8              6               10
      4                9              7               11
      4                9              7               11
      2                7              5                9

| /  slide up
| \  slide down
| h  hammer-on
| p  pull-off
| ~  vibrato
| +  harmonic
| x  Mute note
===============================================================================

            
            
Suggest correction
Creating personal tab
Creating personal tab
You can edit any tab online and save it as your Personal.

You can edit, replace or remove any tab part or add personal notes – all changes will be seen only by you.

Personal tabs can be accessed anytime from any device, even offline.
Learn more »
comments
print report bad tab
2 comments total.
0 reply
stids 252 Dec 17, 2010 12:50 PM

intro

e|----------------------------------------------------------------------------|
B|----------------------------------------------------------------------------|
G|-------------------------------------------------------------4--------------|
D|-4--444-------2------4-----------2--444 4/6-------------------------2---4-2-------|
A|---------2h4-----2------222-2h4---------------------2-----2h4----------4-2--|
E|----------------------------------------------------------------------------|

0 reply
stids 252 Dec 17, 2010 12:53 PM

that didnt work.. can't edit it.

e|----------------------------------------------------------------------------|
B|----------------------------------------------------------------------------|
G|--------------------------------------------------4--------------------------|
D|-4--444-------2------4-----------2-4--444-4/6--------------------2---4-2-----|
A|---------2h4-----2------222-2h4---------------------2-----2h4----------4-2--|
E|----------------------------------------------------------------------------|

guest
You may want to rate the tab now too:
select rating
Wanna post a correction for this tab? Suggest correction