Oops, an error
Loading. Please wait.

For The Land tab

3,484 views 3 this week
2 commentsread comments
1 2 3 4 5
x 4
add to favorites
×
Save as Personal and add changes to this tab that will be seen only by you. Learn more ›
×
You can save this tab as Personal to edit and correct it or add notes. All changes will be seen only by you. Learn more »
launch autoscroll
font size
0
reset
how to read this tab
guitar tuner
edit
Autoscroll
slow
fast
+/-
esc
set tempo
stop
Author
Difficulty
General Rhythm
Em - G - C - G

then

C - G

every once in awhile they throw in one of these
e----------------------------------------------------------------------|
b----------------------------------------------------------------------|
g-------0--------------------------------------------------------------|
d--0h2-----------------------------------------------------------------|
a----------------------------------------------------------------------|
E----------------------------------------------------------------------|

the banjo part is mostly:

e---0-3-0-0-3-0-0-3-0----or--------------------------------------------|
b-----------------------I-Like------------8-------8-------8------------|
g------------------------it-this--------9---9---9---9---9---9----------|
d--------------------------way-----------------------------------------|
a---------------------------a-bit-better-------------------------------|
E----------------------------------------------------------------------|

plus a few country blues style turnarounds.

Bridge

B - C - G - D

Solo

e----------------------------------------------------------------------|
b-------------------------8-----10---b10---b10----8---8---8--8---------|
g--------------------7h9-----------------------------9---9--9----------|
d---------5h7s9--------------------------------------------------------|
a----5s7---------------------------------------------------------------|
E----------------------------------------------------------------------|

e-----------------------------------------------10---------------------|
b-------------------------8-----10---b10---10b12---12b10-8~~~----------|
g--------------------7h9-----------------------------------------------|
d---------5h7s9--------------------------------------------------------|
a--5--5s7--------------------------------------------------------------|
E----------------------------------------------------------------------|

Solo might be a bit off, but it's along those lines. Post comments or corrections if you 
can improve it, and I'll try to update the tab.
Great band.

            
            
Suggest correction
Creating personal tab
Creating personal tab
You can edit any tab online and save it as your Personal.

You can edit, replace or remove any tab part or add personal notes – all changes will be seen only by you.

Personal tabs can be accessed anytime from any device, even offline.
Learn more »
comments
print report bad tab
2 comments total.
0 reply
stids 252 Mar 27, 2013 09:19 PM

banjo part goes kinda like this
e--0-3-0--0-3-0--0-3-0--0-3-0-----0-3-----0-3-----0-3----0-3---
b-------------------------------------3-------3-------3------3-

0 reply
Dr.docter1 52 May 28, 2013 06:30 PM

you can do the banjo part David does by tuning to open G (just like a banjo) and going

e|---2--2---0--0----2--2----0--0-----------------
B|----0--0---0--0----1--1----0--0-----------------
G|------0--0--0--0----0--0----0--0----------------

and for the break, u just do the the same chords, all barred. the positions are…
B C G D
e|--4---5---0---7--------------
B|--4---5---0---7---------------
G|--4---5---0---7-------------
D|--4---5---0---7------------
A|--x---x---x---x----------
E|--x---x---x---x-------------- i only know this because i play banjo

guest
You may want to rate the tab now too:
select rating
Wanna post a correction for this tab? Suggest correction