Oops, an error
Loading. Please wait.

Dispenser Tab

461 views 1 this week
no commentswrite comment
1 2 3 4 5
3 more votes to show rating
add to favorites
launch autoscroll
font size
0
reset
how to read this tab
guitar tuner
Autoscroll
slow
fast
+/-
esc
set tempo
stop
Help us to improve Ultimate-Guitar.com Take our survey!
×
Dispenser - Cursive

left speaker - guitar 1
right speaker - guitar 2

Standard Tuning

Intro Guitar 1

e----------------------|
b----------------------|
g-99999----------------|
d-99999-99999-77777----|
a-77777-99999-77777----|
E-------77777-55555----|

Intro Guitar 2 - strum accordingly

e---------------------------|
b---------------------------|
g-17--14--21--14--11--16----|
d-x---x---x---x---x---x-----|
a-15--12--19--12--9---14----|
E---------------------------|

verse guitar 1

e------------------------------|
b------------------------------|
g------------------------------|
d-9999999---------9999-7777----|
a-7777777-9999999-0000-0000----|
E---------7777777--------------|
pm...........................

verse guitar 2 - this is played through verse except in
                 different patterns each time

e------------19-14-14-14----------------------------------|
b-12-12-12----------------12-12---------------------------|
g--------------------------------16-14-16-14-16-14--------|
d---------------------------------------------------------|
a---------------------------------------------------------|
E---------------------------------------------------------|

Chorus both guitars

e----------------------|
b----------------------|
g-99999----------------|
d-99999-99999-77777----|
a-77777-99999-77777----|
E-------77777-55555----|

Post chorus both guitars

e----------------|
b----------------|
g----------------|
d-99999----------|
a-77777-99999----|
E-------77777----|
Pm...............

then this

e--------------------------------|
b--------------------------------|
g--------------------------------|
d-----9-----7--------------------|
a-----------------9------7-------|
E-7-7--5-5----7-7---5-5----------|

after that everything repeats

end on

e-----
b-----
g-9---
d-9---
a-7---
E-----
Suggest correction
Give kudos to tab author, rate the tab!
1 2 3 4 5
comments
print report bad tab
guest
You may want to rate the tab now too:
select rating
Wanna post a correction for this tab? Suggest correction