Oops, an error
Loading. Please wait.

Dorothy At Forty Tab

653 views 3 this week
no commentswrite comment
1 2 3 4 5
please rate
add to favorites
launch autoscroll
font size
0
reset
how to read this tab
guitar tuner
Tab Pro tools
  • play this tab
  • loop segment
  • change instrument
  • show fretboard
  • metronome
×
Best way to learn
"Dorothy At Forty"
Autoscroll
slow
fast
+/-
esc
set tempo
stop
Contributor
Difficulty
Tuning
intermediate
D A D G B E
Tabbed by: Peted
E-mail: peter.demaris.jr@gmail.com

Tuning: Drop D

Repeat as needed
e|----------------------------------------|
B|----------------------------------------|
G|----------------------------------------|
D|----------------------------------------|
A|-55355355355355355355355355355355355355-|
D|-00000000000000000000000000000000000000-|

e|---------------------------------------------------------------------------|
B|---------------------------------------------------------------------------|
G|---------------------------------------------------------------------------|
D|---------------------------------------------------------------------------|
A|-5535-53-0-----------------------------------------------------------------|
D|-0000-00---3-5-------------------------------------------------------------|

Second guitar just plays open D.
e|---------------------------------------------------------------------------|
B|------------------------10-8---6----------10-8---6----------10-8---6-------|
G|---------9-5-7--7757-75------7----7757-75------7----7757-75------7---------|
D|-7757-75-------------------------------------------------------------------|
A|---------------------------------------------------------------------------|
D|---------------------------------------------------------------------------|

e|--------------------|
B|-8----1----6----5---|
G|-7----0----5----2---|
D|-5----2----3----0---|
A|-5----3----3----0---|
D|-5---------3----0---|

Either play xs or open d palm muted.
e|--------------xxxxxxxxxxxxxxxx---|
B|--------------xxxxxxxxxxxxxxxx---|
G|--------------xxxxxxxxxxxxxxxx---|
D|--------------xxxxxxxxxxxxxxxx---|
A|-553553553553-xxxxxxxxxxxxxxxx---|
D|-000000000000-xxxxxxxxxxxxxxxx---|

Second guitar just plays open D.
e|--------------------------------------------------------------------------|
B|---------------------------------------10-8---6----------10-8---6---------|
G|------------------------9-5-7--7757-75------7----7757-75------7-----------|
D|----------------7757-75---------------------------------------------------|
A|-5535-53-0----------------------------------------------------------------|
D|-----------3-5------------------------------------------------------------|

e|--------------------|
B|-8----1----6----5---|
G|-7----0----5----2---|
D|-5----2----3----0---|
A|-5----3----3----0---|
D|-5---------3----0---|

Either play xs or open d palm muted.
e|--------------xxxxxxxxxxxxxxxx---|
B|--------------xxxxxxxxxxxxxxxx---|
G|--------------xxxxxxxxxxxxxxxx---|
D|--------------xxxxxxxxxxxxxxxx---|
A|-553553553553-xxxxxxxxxxxxxxxx---|
D|-000000000000-xxxxxxxxxxxxxxxx---|

e|----------------2---|
B|-8----6----4----3---|
G|-7----5----3----2---|
D|-5----3----1----4---|
A|-5----3----1----0---|
D|-5----3----1----0---|

e|---------------------------------------------------------------------------|
B|-3-3-3-3-3-----------------------------------------------------------------|
G|-2-2-2-2-2--5-7b8 bend and pick wildly and transition into muted strumming-|
D|-0-0-0-0-0-----------------------------------------------------------------|
A|-0-0-0-0-0-----------------------------------------------------------------|
D|-0-0-0-0-0-----------------------------------------------------------------|

e|-------------------------22222222---|
B|-44444444666666668888888833333333---|
G|-33333333555555557777777722222222---|
D|-11111111333333335555555544444444---|
A|-11111111333333335555555500000000---|
D|-11111111333333335555555500000000---|

Semi Palm-muted.
e|----------------2---|
B|-8----6----4----3---|
G|-7----5----3----2---|
D|-5----3----1----4---|
A|-5----3----1----0---|
D|-5----3----1----0---|

e|-x-x-|
B|-x-x-|
G|-x-x-|
D|-x-x-|
A|-x-x-|
D|-x-x-|

e|----------------2---|
B|-8----6----4----3---|
G|-7----5----3----2---|
D|-5----3----1----4---|
A|-5----3----1----0---|
D|-5----3----1----0---|

e|-----------------------------------|
B|-3-3-3-3-3--3-3-3-3-3--3-3-3-3-3---|
G|-2-2-2-2-2--2-2-2-2-2--2-2-2-2-2---|
D|-0-0-0-0-0--0-0-0-0-0--0-0-0-0-0---|
A|-0-0-0-0-0--0-0-0-0-0--0-0-0-0-0---|
D|-0-0-0-0-0--0-0-0-0-0--0-0-0-0-0---|

Silence

e|-------------------------22222222---|
B|-44444444666666668888888833333333---|
G|-33333333555555557777777722222222---|
D|-11111111333333335555555544444444---|
A|-11111111333333335555555500000000---|
D|-11111111333333335555555500000000---|

End strumming the G.
comments
We did not receive enough feedback on this tab! Please rate:
print report bad tab
1 2 3 4 5
I want to post or [tab]
guest
You may want to rate the tab now too:
select rating
Please do not post tabs as comments. Select "correction" instead!