Oops, an error
Loading. Please wait.

From The Hips Bass Tab

2,038 views 1 this week
no commentswrite comment
1 2 3 4 5
1 last vote to show rating
add to favorites
launch autoscroll
font size
0
reset
guitar tuner
Autoscroll
slow
fast
+/-
esc
set tempo
stop
Help us to improve Ultimate-Guitar.com Take our survey!
×
Author
-------------------------------------------------------------------------------
			     From The Hips - Cursive
-------------------------------------------------------------------------------

Tabbed By : Zealot777
e-mail:

Tuning: standard


Intro (you can figure out how many times he plays the note)
G|---------------------------------------------------------------------------|
D|---------------------------------------------------------------------------|
A|--------6------------------------------------------------------------------|
E|---------------------------------------------------------------------------|


verse/chorus
(its the same notes throughout the whole song)(you can figure out how many times to play 
note)
G|---------------------------------------------------------------------------|
D|---------------------------------------------------------------------------|
A|---------------------------------6-----------------------------------------|
E|-----8---------4--------6-------------------8--------4-------6-------------|

G|---------------------------------------------------------------------------|
D|---------------------------------------------------------------------------|
A|-------6----5--------------------------------------------6---5-------------|
E|-------------------4------6-----8-----1------4-----6-------------4----6----|

G|---------------------------------------------------------------------------|
D|---------------------------------------------------------------------------|
A|------6~~------------------------------------------------------------------|
E|---------------------------------------------------------------------------|


so its basically that the whole song, even through the trumpet part. you just got to 
in on how many times you play each note.
i could of written it out but i was too lazy :P

| /  slide up
| \  slide down
| h  hammer-on
| p  pull-off
| ~  vibrato
| +  harmonic
| x  Mute note
===============================================================================
Suggest correction
Give kudos to tab author, rate the tab!
1 2 3 4 5
comments
print report bad tab
guest
You may want to rate the tab now too:
select rating
Wanna post a correction for this tab? Suggest correction