Oops, an error
Loading. Please wait.

Into The Fold Tab

2,649 views 1 this week
no commentswrite comment
1 2 3 4 5
2 more votes to show rating
add to favorites
launch autoscroll
font size
0
reset
how to read this tab
guitar tuner
Autoscroll
slow
fast
+/-
esc
set tempo
stop
Help us to improve Ultimate-Guitar.com Take our survey!
×
This is also the bridge.

Intro:
[Guitar 1]
e|---------8-------------8-------------8------------8-------------|
B|-----6-----6-------6-----6-------6----6-------6-----6-----------|
G|-------7-----7-------7-----7-------7----7-------7------8--------|
D|---8-------------8-------------8------------8-------------------|
A|----------------------------------------------------------------|
E|----------------------------------------------------------------|

e|--------8-----------8-------------8-------------8-----------|
B|---6-----6------6-----6-------6-----6-------6------6--------|
G|-----7-----7------7-----7-------7-----7-------7------7------|
D|-8------------5------------7--------------7-----------------|
A|------------------------------------------------------------|
E|------------------------------------------------------------|

e|--------8-------------8-------------8------------8-----------|
B|----6-----6-------6----6--------6-----6------6------6--------|
G|------7-----7-------7----7--------7-----7------7------7------|
D|----------------5-------------0------------0-----------------|
A|--8----------------------------------------------------------|
E|-------------------------------------------------------------|

[Guitar 2]
e|------------------------------5----------------------------------|
B|----6---6-----6---6-----8-6-----6---8-6---8-6----8-6---8-6-------|
G|--7---7--7--7---7---7-------7-----7-----7-----7------7-----7-----|
D|-8---------8-----------------------------------------------------|
A|-----------------------------------------------------------------|
E|-----------------------------------------------------------------|

e|---------------------------------------------|
B|---------------------------------------------|
G|---------------------------------------------|
D|---------------------------------------------|
A|--5-7-7-7--5-7-7-5-0-0--5-7-7--7-8-10--------|
E|---------------------------------------------|
Suggest correction
Give kudos to tab author, rate the tab!
1 2 3 4 5
comments
print report bad tab
guest
You may want to rate the tab now too:
select rating
Wanna post a correction for this tab? Suggest correction