Oops, an error
Loading. Please wait.

Let Me Up Tab

302 views 1 this week
no commentswrite comment
1 2 3 4 5
please rate
add to favorites
launch autoscroll
font size
0
reset
how to read this tab
guitar tuner
Autoscroll
slow
fast
+/-
esc
set tempo
stop
Help us to improve Ultimate-Guitar.com Take our survey!
×
Difficulty
Capo
intermediate
1st fret
Capo 1st Fret

Diseased heat...
|-0-----1-----3----|-1-----1----0----|
|-1-----1-----0----|-3-----3----1----|
|-2-----2-----0----|-3-----2----0----|
|-2-x8--3-x4--0-x4-|-3-x8--0-x4-2-x4-|
|-0-----3-----2----|-1----------3----|
|-------1-----3----|-----------------|

Stop...
|-2---2-2-2--2-2-2--2-2-2---1---1-1-1--1-1-1--1-1-1-|
|-3---3-3-3--3-3-3--3-3-3---2---2-2-2--2-2-2--2-2-2-|
|-4---4-4-4--4-4-4--4-4-4---3---3-3-3--3-3-3--3-3-3-|
|-4---4-4-4--4-4-4--4-4-4---3---3-3-3--3-3-3--3-3-3-|
|-2---2-2-2--2-2-2--2-2-2---1---1-1-1--1-1-1--1-1-1-|
|---------------------------------------------------|

We’re buoying atop...
|-1-----0-----1----|-1-----0-----|-1-----0----|
|-1-----1-----3----|-2-----1-----|-2-----1----|
|-2-----2-----2----|-3-----0-----|-3-----2----|
|-3-x8--2-x8--0-x8-|-3-x4--2-x4--|-3-x4--2-x4-|
|-3-----0----------|-1-----3-----|-1-----0----|
|-1----------------|-------------|------------|

Repeat

I can’t stop thinking of the time...
|-1-----1-----2----|
|-3-----3-----3----|
|-2-----3-----4----|
|-0-x8--3-x8--4-x8-|
|-------1-----2----|
|------------------|

Let me up...
|-1---1-1-1--1-1-1--1-1-1---1---1-1-1--1-1-1--1-1-1-|
|-2---2-2-2--2-2-2--2-2-2---2---2-2-2--2-2-2--2-2-2-|
|-3---3-3-3--3-3-3--3-3-3---3---3-3-3--3-3-3--3-3-3-|
|-3---3-3-3--3-3-3--3-3-3---3---3-3-3--3-3-3--3-3-3-|
|-1---1-1-1--1-1-1--1-1-1---1---1-1-1--1-1-1--1-1-1-|
|---------------------------------------------------|

Mama, the planet is...
|-1--1---0-----1------1--1---0-----1----|
|-3--3---1-----3------1--1---1-----3----|
|-3--3---0-----2------2--2---2-----2----|
|-3--3---2-x4--0-x4---3--3---2-x4--0-x4-|
|-1--1---3------------3--3---0----------|
|---------------------1--1--------------|

Let me up...
|-1---1-1-1--1-1-1--1-1-1---1---1-1-1--1-1-1--1-1-1-|
|-2---2-2-2--2-2-2--2-2-2---2---2-2-2--2-2-2--2-2-2-|
|-3---3-3-3--3-3-3--3-3-3---3---3-3-3--3-3-3--3-3-3-|
|-3---3-3-3--3-3-3--3-3-3---3---3-3-3--3-3-3--3-3-3-|
|-1---1-1-1--1-1-1--1-1-1---1---1-1-1--1-1-1--1-1-1-|
|---------------------------------------------------|

Let me up (whispered)
|-1-----0-----1----|-1-----0-----|-1-----0----|
|-1-----1-----3----|-2-----1-----|-2-----1----|
|-2-----2-----2----|-3-----0-----|-3-----2----|
|-3-x8--2-x8--0-x8-|-3-x4--2-x4--|-3-x4--2-x4-|
|-3-----0----------|-1-----3-----|-1-----0----|
|-1----------------|-------------|------------|

I can’t stop dreaming of the day...
|-1-----1-----2----|
|-3-----3-----3----|
|-2-----3-----4----|
|-0-x8--3-x8--4-x8-|
|-------1-----2----|
|------------------|

Let me up...
|-1---1-1-1--1-1-1--1-1-1---1---1-1-1--1-1-1--1-1-1-|
|-2---2-2-2--2-2-2--2-2-2---2---2-2-2--2-2-2--2-2-2-|
|-3---3-3-3--3-3-3--3-3-3---3---3-3-3--3-3-3--3-3-3-|
|-3---3-3-3--3-3-3--3-3-3---3---3-3-3--3-3-3--3-3-3-|
|-1---1-1-1--1-1-1--1-1-1---1---1-1-1--1-1-1--1-1-1-|
|---------------------------------------------------|

Let me up...
|-0---0-0-0--0-0-0--0-0-0---1---1-1-1--1-1-1--1-1-1-|
|-1---1-1-1--1-1-1--1-1-1---1---1-1-1--1-1-1--1-1-1-|
|-2---2-2-2--2-2-2--2-2-2---2---2-2-2--2-2-2--2-2-2-|
|-2---2-2-2--2-2-2--2-2-2---3---3-3-3--3-3-3--3-3-3-|
|-0---0-0-0--0-0-0--0-0-0---3---3-3-3--3-3-3--3-3-3-|
|---------------------------1---1-1-1--1-1-1--1-1-1-|

Let me up...
|---------------------------2---1---0-|
|---------------------------3---2---1-|
|-0---0-0-0--0-0-0--0-0-0---4---3---2-|
|-2---2-2-2--2-2-2--2-2-2---4---3---2-|
|-2---2-2-2--2-2-2--2-2-2---2---1---0-|
|-0---0-0-0--0-0-0--0-0-0-------------|

Pete D.
Suggest correction
Give kudos to tab author, rate the tab!
1 2 3 4 5
comments
print report bad tab
guest
You may want to rate the tab now too:
select rating
Wanna post a correction for this tab? Suggest correction